A Lot Like Vegas Tab - Bring Me the Horizon






-------------------------------------------------------------------------------
          A LOT LIKE VEGAS - Bring Me The Horizon
-------------------------------------------------------------------------------
Tabbed by: nickETCETERA
Email: takeonwater@yahoo.com

Tuning: Drop D
Tell me whatcha think. I covered this song if you wanna see.
My youtube account = http://www.youtube.com/profile?user=nickETCETERA


Intro Riff
---------------------------------------------------------------------------|
---------------------------------------------------------------------------|
---------------------------------------------------------------------------|
---------------------------------------------------------------------------|
-8p5---4h7---8p5---4h7-000-000---------------------------------------------|
-----0-----0-----0-----000-000---------------------------------------------|
     .     .     .     ... ...
-------------------------------|--------------------|-------------------------|
-------------------------------|--------------------|-------------------------|
-------------------------------|-33333333-7777-6666-|-33333333-10101010-9999--|
-------------------------------|-xxxxxxxx-xxxx-xxxx-|-xxxxxxxx-x-x-x-x--xxxx--|
-8p5---4h7---8p5---4h7-000-000-|-11111111-5555-4444-|-11111111-8-8-8-8--7777--|
-----0-----0-----0-----000-000-|--------------------|-------------------------|
     .     .     .     ... ...   1st part              2nd part

"We'll take this feeling to our graves!"
---------------------------------------------------------------------------|
---------------------------------------------------------------------------|
---------------------------------------------------------------------------|
-0--10--7--1010--101010-10-1212-121212-12----------------------------------|
-0--8---5--8-8---8-8-8--8--1010-101010-10----------------------------------|
-0--8---5--8-8---8-8-8--8--1010-101010-10----------------------------------|
let these chords ring. [guitar 1]

---------------------------------------------------------------------------|
---------------------------------------------------------------------------|
-10---------77-777-7-1010-10-99-9------------------------------------------|
-x---10--7--xx-xxx-x-x-x--x--xx-x------------------------------------------|
-8---8---5--55-555-5-8-8--8--77-7------------------------------------------|
-----8---5-----------------------------------------------------------------|
[guitar 2]

"We'll take this feeling to our graves" second time.
---------------------------------------------------------------------------------------------------------------------------|
---------------------------------------------------------------------------------------------------------------------------|
----------1212-121212-12-----------------1414-141414-14-----------1717-171717-17-------------------------------------------|
-00-000-0-x-x---x-x-x--x--1010-101010-10-x-x--x-x-x--x--77-777-7--x-x--x-x-x--x---1010--101010-10-1212-121212-12-----------|
-00-000-0-1010-101010-10--8-8--8-8-8--8--1212-121212-12-55-555-5--1515-151515-15--8-8---8-8-8--8--1010-101010-10-----------|
-00-000-0-----------------8-8--8-8-8--8-----------------55-555-5------------------8-8---8-8-8--8--1010-101010-10-----------|




"The only place I'll call home is my deathbed."
-------------------------------|------------------------|-----------------------------|
-------------------------------|------------------------|-----------------------------|
-------------------------------|-------7h10--------8h11-|---------10h13---------11h14-|
-------------------------------|----6h9--------7h10-----|-----9h12---------10h13------|
-8p5---4h7---8p5---4h7-000-000-|-5h8--------6h9---------|-8h11---------9h12-----------|
-----0-----0-----0-----000-000-|------------------------|-----------------------------|
     .     .     .     ... ...  [guitar 1]               [guitar 2]



Breakdown [you can figure the chugging before. its all an open chord]
-----------------------------------|---------------|-------------------||-------|
-----------------------------------|---------------|-------------------||-------|
-----------------------------------|---------------|-------------------||-11--8-|
-000-0-0-000-0-0-00000000---0-0-0--|----6-9---7-10-|-----9-12----10-13-||-x---x-|
-000-0-0-000-0-0-00000000---0-0-0--|-5-8---6-9-----|-8-11----9-12------||-9---6-|
-000-0-0-000-0-0-00000000---0-0-0--|---------------|-------------------||-------|
 [everything is palm muted here.]   [guitar 1]      [guitar 2]            



Solo
-----12h13p12----12h13p12---------------------------12h13h12---12h13h12-17------------------------------------------------------|
-15-----------13--------------------------------------------15------------------------------------------------------------------|
--------------------------14-12-12-12h14h12--------------------------------12-12h14p12-------------------------12-12h13h12------|
--------------------------------------------15-12-------------------------------------15-12----15-12--15-12-15------------15-12-|
--------------------------------------------------------------------------------------------------------------------------------|
--------------------------------------------------------------------------------------------------------------------------------|

Rhythm to solo
---------------------------------------------------------------------------|
---------------------------------------------------------------------------|
---------------------------------------------------------------------------|
-0----------------8-------5------------------------------------------------|
-0-------5-8-7p5--8-------5---8p7-5----------------------------------------|
-0-000000-0-0---0-8-88888-5-55---5-----------------------------------------|
   ...... . .   .   .....   ..   .

"I know we're so wrong, but it feels so right."
-----------------------|----------------|---------------------------------------|
-----------------------|----------------|-10h11p10--10-----10h11p10--10-----13--|
-777-999-101010-121212-|----------------|---------12--12-10--------12--12-10----|
-xxx-xxx-x-x-x--x-x-x--|-8---8p7--5-----|---------------------------------------|
-555-777-8-8-8--101010-|-8--------5-----|---------------------------------------|
-----------------------|-8-88---8-5-55--|---------------------------------------|
                           ..   .   ..

"I'm running on empty, you're running out of luck." guitar 2 harmonizes with:
---------------------------------------------------------------------------|
-------------------------------13h15p13--13-----13h15p13--13-----17--------|
-101010-121212-141414-151515-----------15--15-14--------15--15-14----------|
-x-x-x--x-x-x--x-x-x--x-x-x------------------------------------------------|
-8-8-8--101010-121212-131313-----------------------------------------------|
---------------------------------------------------------------------------|

End this part with:
-------------------------------------------------------------------------------|
-10h11p10--10------10h11p10--10-----13--13h15h13--13------13h15h13--13-----17--|
---------12--12-10---------12--12-10------------15--15-14---------15--15-14----|
-------------------------------------------------------------------------------|
-------------------------------------------------------------------------------|
-------------------------------------------------------------------------------|
[guitar 1]

---------------------------------------------------------------------------------|
-13h15h13--13------13h15h13--13-----17--17h18p17--17------17h18p17--17-----20---|
---------15--15-14---------15--15-14------------19--19-17---------19--19-17------|
---------------------------------------------------------------------------------|
---------------------------------------------------------------------------------|
---------------------------------------------------------------------------------|
[guitar 2]


And the ending is just the breakdown slowed down.



| /  slide up
|   slide down
| h  hammer-on
| p  pull-off
| ~  vibrato
| +  harmonic
| x  Mute note
===============================================================================

ĂŽnscrie-te la newsletter


Join the ranks ! LIKE us on Facebook