Alligator Blood Tab - Bring Me the Horizon






 Alligator Blood – Bring Me the Horizon
-----------------------------------------------------------------------------
Tabbed by: ILPWLSW
YouTube Channel: http://www.youtube.com/user/ILPWLSW?feature=mhum
Email: wilsontristanm@hotmail.com
This is the song Alligator Blood from Bring Me the Horizon’s album “There is
a Hell, Believe Me I’ve Seen it. There is a Heaven Let’s Keep it a Secret.”
*****************************************************************************
I post guitar lesson videos for learning songs and guitar covers on my 
YouTube channel, so I would appreciate if you would subscribe, or watch some 
of my videos. I tabbed this song by ear in a few days. I tabbed every guitar
in the song, so that you can learn both parts, or so you can play the song 
with other people. If you use this tab for a guitar cover video on YouTube, 
please post my channel link in your description as the person you got the tab
from.
*****************************************************************************
Tuning: Drop A#
Guitar 1 (A#,F,A#,D#,G,C) –Left Ear
Guitar 2 (A#,F,A#,D#,G,C) –Right Ear
Guitar 3 (A#,F,A#,D#,G,C) -Extra
Intro 0:00 – 0:09
Guitar 1
e|--------------------------------------------------------------------------|
B|--------------------------------------------------------------------------|
G|--------------------------------------------------------------------------|
D|--------------------------------------------------------------------------|
A|------------------------------0-----1--------------------------0-0-1------|
E|-000-000--0h1--000--4p1--000----0-1----000--0-0-0--000--0-0-0--0-0-1------|
... ...       ...       ...           ...         ...         . .
Guitar 2
e|--------------------------------------------------------------------------|
B|--------------------------------------------------------------------------|
G|--------------------------------------------------------------------------|
D|--------------------------------------------------------------------------|
A|-000-000-------------------------------------------------------0-0-1------|
E|-000-000-------------------------------------------------------0-0-1------|
... ...                                                       . .
Guitar 1
e|--------------------------------------------------------------------------|
B|--------------------------------------------------------------------------|
G|---------------------------------------------------------------(4)--------|
D|--------------------------------------------------------------------------|
A|------------------------------0-----1-------6-3-5-------3-0---------------|
E|-000-000--0h1--000--4p1--000----0-1----000---------000------3-------------|
... ...       ...       ...           ...         ...  
Guitar 2
e|--------------------------------------------------------------------------|
B|--------------------------------------------------------------------------|
G|--------------------------------------------------------------------------|
D|----------0---------------------------------------------------------------|
A|-000-000--0---------------------------------6-3-5-------3-0---------------|
E|-000-000--0----------------------------000---------000------3-------------|
... ...                               ...         ...
“Let’s play a game of Russian Roulette” 0:10 – 0:29
Guitars 1 and 2
e|--------------------------------------------------------------------------|
B|--------------------------------------------------------------------------|
G|--------------------------------------------------------------------------|
D|------------------------------7--------------------------8-5-7------------|
A|----------5-6-------9-6---------6-5----------6-3-5--------------0-0-1-----|
E|-000-000-------000-------000-----------000----------000---------0-0-1-----|
... ...       ...       ...           ...          ...         . .
e|--------------------------------------------------------------------------|
B|--------------------------------------------------------------------------|
G|--------------------------------------------------------------------------|
D|------------------------------7-------------------------------------------|
A|----------5-6-------9-6---------6-5-------6-3-5-------3-0----3-0---0------|
E|-0-0-0-0-------000-------000---------000---------000------3------3--------|
. . . .       ...       ...         ...         ...
e|--------------------------------------------------------------------------|
B|--------------------------------------------------------------------------|
G|--------------------------------------------------------------------------|
D|------------------------------7--------------------------8-5-7------------|
A|----------5-6-------9-6---------6-5----------6-3-5--------------0-0-1-----|
E|-000-000-------000-------000-----------000----------000---------0-0-1-----|
... ...       ...       ...           ...          ...         . .
e|--------------------------------------------------------------------------|
B|--------------------------------------------------------------------------|
G|--------------------------------------------------------------------------|
D|------------------------------7-------------------------------------------|
A|----------5-6-------9-6---------6-5-------6-3-5-------3-5-5-5-8-6-3-5--5--|
E|-0-0-0-0-------000-------000---------000---------000----------------------|
. . . .       ...       ...         ...         ...
“Over and over and over again” 0:30 – 0:47
Guitars 1 and 2
e|--------------------------------------------------------------------------|
B|--------------------------------------------------------------------------|
G|--------------------------------------------------------------------------|
D|--------------------------------------------------------------------------|
A|-----------------------------------------------------3-5-5-5-8-6-3-5--5---|
E|-0---0---0-----0-----0---0---0-----0-----0---0---0------------------------|
e|--------------------------------------------------------------------------|
B|--------------------------------------------------------------------------|
G|--------------------------------------------------------------------------|
D|-------------------------------10-----------------------------------------|
A|---------------------------------------6-------9s3-----3-------8-6-3-5--5-|
E|-0---0---0-----0-----0---0---0----0-0-----0-0-------0-----0-0-------------|
.    . .     . .       .     . .
e|--------------------------------------------------------------------------|
B|--------------------------------------------------------------------------|
G|--------------------------------------------------------------------------|
D|---------8-----8-------------7-----7--------------------------------------|
A|---------6-----6-------------5-----5-----------------3-5-5-5-8-6-3-5-5----|
E|-0---0---------------0---0---------------0---0---0------------------------|
e|--------------------------------------------------------------------------|
B|--------------------------------------------------------------------------|
G|--------------------------------------------------------------------------|
D|---------8--8--8--8--8--8--4--4--4--4--4--4--4--4--1--1--1--1--1--1--1--1-|
A|---------6--6--6--6--6--6--4--4--4--4--4--4--4--4--1--1--1--1--1--1--1--1-|
E|-0---0---------------------4--4--4--4--4--4--4--4--1--1--1--1--1--1--1--1-|
Pre-chorus 0:48 – 0:56
Guitar 1
e|--------------------------------------------------------------------------|
B|--------------------------------------------------------------------------|
G|--------------------------------------------------------------------------|
D|--------------------------------------------------------------------------|
A|--------------------------------------------------------------------------|
E|-0-0-12-0-12-0-0-13-0-13-0-12-16-13-12-13-0-0-12-0-12-0-0-0-13-13-13-13-13|
e|--------------------------------------------------------------------------|
B|--------------------------------------------------------------------------|
G|--------------------------------------------------------------------------|
D|--------------------------------------------------------------------------|
A|--------------------------------------------------------------------------|
E|-12-12-12-0-0-12-0-12-0-0-13-0-13-0-12-16-13-12-13-13-13-13-0------0------|
e|-------------------------|
B|-------------------------|
G|-------------------------|
D|-------------------------|
A|-------------------------|
E|-4-4-4-4------4-1-1-1-1--|
Guitar 2
e|--------------------------------------------------------------------------|
B|--------------------------------------------------------------------------|
G|--------------------------------------------------------------------------|
D|---------------1----0-----------------------------------------------------|
A|-0-0----0-0----1----0-----------------------------------------------------|
E|-0-0----0-0----1----0---------------------13-13-13-13-13-12-12-12---------|
. .    . .
e|--------------------------------------------------------------------------|
B|--------------------------------------------------------------------------|
G|--------------------------------------------------------------------------|
D|---------------1----------------------------------------------------------|
A|-0-0----0-0----1----------------------------------------------------------|
E|-0-0----0-0----1----13-13-13-0-----0-----4-4-4-4------4-1-1-1-1-----------|
. .    . .
Chorus 0:57 – 1:15
Guitars 1 and 2
e|--------------------------------------------------------------------------|
B|--------------------------------------------------------------------------|
G|--------------------------------------------------------------------------|
D|--------------------------------------------------------------------------|
A|--------------------------------------------------------------------------|
E|-0-0-12-0-12-0-0-13-0-13-0-12-16-13-12-13-0-0-12-0-12-0-0-0-13-13-13-13-13|
e|--------------------------------------------------------------------------|
B|--------------------------------------------------------------------------|
G|--------------------------------------------------------------------------|
D|--------------------------------------------------------------------------|
A|--------------------------------------------------------------------------|
E|-12-12-12-0-0-12-0-12-0-0-13-0-13-0-12-16-13-12-13-13-13-13-0------0------|
e|-------------------------|
B|-------------------------|
G|-------------------------|
D|-------------------------|
A|-------------------------|
E|-4-4-4-4------4-1-1-1-1--|
e|--------------------------------------------------------------------------|
B|--------------------------------------------------------------------------|
G|--------------------------------------------------------------------------|
D|--------------------------------------------------------------------------|
A|--------------------------------------------------------------------------|
E|-0-0-12-0-12-0-0-13-0-13-0-12-16-13-12-13-0-0-12-0-12-0-0-0-13-13-13-13-13|
e|--------------------------------------------------------------------------|
B|--------------------------------------------------------------------------|
G|--------------------------------------------------------------------------|
D|--------------------------------------------------------------------------|
A|--------------------------------------------------------------------------|
E|-12-12-12-0-0-12-0-12-0-0-13-0-13-0-12-16-13-12-13-13-13-13-0------0------|
e|-------------------------|
B|-------------------------|
G|-------------------------|
D|-------------------------|
A|----------------1-1------|
E|-4-4-4-4------4-1-1------|
. .
“Chop me up and wear my skin” 1:16 – 1:34
Guitars 1 and 2
e|--------------------------------------------------------------------------|
B|--------------------------------------------------------------------------|
G|--------------------------------------------------------------------------|
D|--------------------------------------------------------------------------|
A|------------------------------0-----1-------------------------------------|
E|-000-000--0h1--000--4p1--000----0-1----0---0---0-----0---0---0-----0---0--|
... ...       ...       ... 
e|--------------------------------------------------------------------------|
B|--------------------------------------------------------------------------|
G|---------------------------------3-3-3-3-3-3-3-3-3-3-3-3------------------|
D|-0-0-0-1-1-1-1-4-4-4-4-4-4-4-4-4-1-1-1-1-1-1-1-1-1-1-1-1------------------|
A|-0-0-0-1-1-1-1-4-4-4-4-4-4-4-4-4-1-1-1-1-1-1-1-1-1-1-1-1------------------|
E|-0-0-0-1-1-1-1-4-4-4-4-4-4-4-4-4-1-1-1-1-1-1-1-1-1-1-1-1-1/4~-------------|
e|--------------------------------------------------------------------------|
B|--------------------------------------------------------------------------|
G|--------------------------------------------------------------------------|
D|--------------------------------------------------------------------------|
A|------------------------------0-----1-------------------------------------|
E|-000-000--0h1--000--4p1--000----0-1----0---0---0-----0---0---0-----0---0--|
... ...       ...       ... 
e|--------------------------------------------------------------------------|
B|--------------------------------------------------------------------------|
G|---------------------------------3-3-3-3-3-3-3-3-3-3-3-3------------------|
D|-0-0-0-1-1-1-1-4-4-4-4-4-4-4-4-4-1-1-1-1-1-1-1-1-1-1-1-1------------------|
A|-0-0-0-1-1-1-1-4-4-4-4-4-4-4-4-4-1-1-1-1-1-1-1-1-1-1-1-1------------------|
E|-0-0-0-1-1-1-1-4-4-4-4-4-4-4-4-4-1-1-1-1-1-1-1-1-1-1-1-1-1/4~-------------|
Chorus 2 – 1:34 – 1:55
Guitar 1
e|--------------------------------------------------------------------------|
B|--------------------------------------------------------------------------|
G|--------------------------------------------------------------------------|
D|--------------------------------------------------------------------------|
A|--------------------------------------------------------------------------|
E|-0-0-12-0-12-0-0-13-0-13-0-12-16-13-12-13-0-0-12-0-12-0-0-0-13-13-13-13-13|
e|--------------------------------------------------------------------------|
B|--------------------------------------------------------------------------|
G|--------------------------------------------------------------------------|
D|--------------------------------------------------------------------------|
A|--------------------------------------------------------------------------|
E|-12-12-12-0-0-12-0-12-0-0-13-0-13-0-12-16-13-12-13-13-13-13-0------0------|
e|-------------------------|
B|-------------------------|
G|-------------------------|
D|-------------------------|
A|-------------------------|
E|-4-4-4-4------4-1-1-1-1--|
e|--------------------------------------------------------------------------|
B|--------------------------------------------------------------------------|
G|--------------------------------------------------------------------------|
D|-0-0-0-0-0-0-0-0-1-1-1-1-4-4-4-4-4-0-0-0-0-0-0-0-1-1-1-1-0-0-0-0----------|
A|-0-0-0-0-0-0-0-0-1-1-1-1-4-4-4-4-4-0-0-0-0-0-0-0-1-1-1-1-0-0-0-0----------|
E|-0-0-0-0-0-0-0-0-1-1-1-1-4-4-4-4-4-0-0-0-0-0-0-0-1-1-1-1-0-0-0-0----------|
e|--------------------------------------------------------------------------|
B|--------------------------------------------------------------------------|
G|--------------------------------------------------------------------------|
D|-0-0-0-0-0-0-0-0-1-1-1-1-4-4-4-4-4-0-0-0-0-0-0-0-1-1-1-1-0-0-0-0----------|
A|-0-0-0-0-0-0-0-0-1-1-1-1-4-4-4-4-4-0-0-0-0-0-0-0-1-1-1-1-0-0-0-0-0----0-0-|
E|-0-0-0-0-0-0-0-0-1-1-1-1-4-4-4-4-4-0-0-0-0-0-0-0-1-1-1-1-0-0-0-0-0----0-0-|
.    . .
Guitar 2
e|--------------------------------------------------------------------------|
B|--------------------------------------------------------------------------|
G|--------------------------------------------------------------------------|
D|--------------------------------------------------------------------------|
A|--------------------------------------------------------------------------|
E|-0-0-12-0-12-0-0-13-0-13-0-12-16-13-12-13-0-0-12-0-12-0-0-0-13-13-13-13-13|
e|--------------------------------------------------------------------------|
B|--------------------------------------------------------------------------|
G|--------------------------------------------------------------------------|
D|--------------------------------------------------------------------------|
A|--------------------------------------------------------------------------|
E|-12-12-12-0-0-12-0-12-0-0-13-0-13-0-12-16-13-12-13-13-13-13-0------0------|
e|-------------------------|
B|-------------------------|
G|-------------------------|
D|-------------------------|
A|-------------------------|
E|-4-4-4-4------4-1-1-1-1--|
e|--------------------------------------------------------------------------|
B|--------------------------------------------------------------------------|
G|--------------------------------------------------------------------------|
D|-0-0-0-0-0-0-0-0-1-1-1-1-4-4-4-4-4-0-0-0-0-0-0-0-1-1-1-1-0-0-0-0----------|
A|-0-0-0-0-0-0-0-0-1-1-1-1-4-4-4-4-4-0-0-0-0-0-0-0-1-1-1-1-0-0-0-0----------|
E|-0-0-0-0-0-0-0-0-1-1-1-1-4-4-4-4-4-0-0-0-0-0-0-0-1-1-1-1-0-0-0-0----------|
e|--------------------------------------------------------------------------|
B|--------------------------------------------------------------------------|
G|--------------------------------------------------------------------------|
D|-0-0-0-0-0-0-0-0-1-1-1-1-4-4-4-4-4-0-0-0-0-0-0-0-1-1-1-1-0-0-0-0----------|
A|-0-0-0-0-0-0-0-0-1-1-1-1-4-4-4-4-4-0-0-0-0-0-0-0-1-1-1-1-0-0-0-0----------|
E|-0-0-0-0-0-0-0-0-1-1-1-1-4-4-4-4-4-0-0-0-0-0-0-0-1-1-1-1-0-0-0-0----------|
e|--------------------------------------------------------------------------|
B|--------------------------------------------------------------------------|
G|--------------------------------------------------------------------------|
D|--------------------------------------------------------------------------|
A|------6-3-5--------------0-0----------------------------------------------|
E|-000---------000--8-5-7--0-0----------------------------------------------|
...         ...         . .
“Put a gun to my head” 1:56 – 2:14
Guitars 1 and 2
e|--------------------------------------------------------------------------|
B|--------------------------------------------------------------------------|
G|--------------------------------------------------------------------------|
D|--------------------------------------------------------------------------|
A|------6-3-5------------------------------6-3-5----------------------------|
E|-000---------000--8-5-7----0-4-1-0--000---------000--4-4-4-4-1-1-1-1------|
...         ...                    ...         ...
e|--------------------------------------------------------------------------|
B|--------------------------------------------------------------------------|
G|--------------------------------------------------------------------------|
D|--------------------------------------------------------------------------|
A|------6-3-5---------------------------------------------------------------|
E|-000---------000--8-5-7----0-4-1-0-4-4-4-4-4-4-4-4-1-1-1-1-1-1-1-1--------|
...         ...
e|--------------------------------------------------------------------------|
B|--------------------------------------------------------------------------|
G|--------------------------------------------------------------------------|
D|--------------------------------------------------------------------------|
A|------6-3-5------------------------------6-3-5----------------------------|
E|-000---------000--8-5-7----0-4-1-0--000---------000--4-4-4-4-1-1-1-1------|
...         ...                    ...         ...
e|--------------------------------------------------------------------------|
B|--------------------------------------------------------------------------|
G|--------------------------------------------------------------------------|
D|--------------------------------------------------------------------------|
A|------6-3-5---------------------------------------------------------------|
E|-000---------000--8-5-7----0-4-1-0-4-4-4-4-4-4-4-4-1-1-1-1-1-1-1-1--------|
...         ...
“Now you know” 2:15 – 2:32
Guitar 1
e|--------------------------------------------------------------------------|
B|--------------------------------------------------------------------------|
G|--------------------------------------------------------------------------|
D|--------------------------------------------------5--5--5--5--7--7--7--7--|
A|--------------------------------------------------5--5--5--5--7--7--7--7--|
E|-12--12--12--0---0---0---12--12--12--0---0---0----5--5--5--5--7--7--7--7--|
e|--------------------------------------------------------------------------|
B|--------------------------------------------------------------------------|
G|--------------------------------------------------------------------------|
D|--------------------------------------------------5--5--5--5--7--7--7--7--|
A|--------------------------------------------------5--5--5--5--7--7--7--7--|
E|-12--12--12--0---0---0---12--12--12--0---0---0----5--5--5--5--7--7--7--7--|
e|--------------------------------------------------------------------------|
B|--------------------------------------------------------------------------|
G|--------------------------------------------------------------------------|
D|--------------------------------------------------5--5--5--5--7--7--7--7--|
A|--------------------------------------------------5--5--5--5--7--7--7--7--|
E|-12--12--12--0---0---0---12--12--12--0---0---0----5--5--5--5--7--7--7--7--|
e|--------------------------------------------------------------------------|
B|--------------------------------------------------------------------------|
G|--------------------------------------------------------------------------|
D|--------------------------------------------------5--5--5--5--7--7--7--7--|
A|--------------------------------------------------5--5--5--5--7--7--7--7--|
E|-12--12--12--0---0---0---12--12--12--0---0---0----5--5--5--5--7--7--7--7--|
Guitar 2
e|--------------------------------------------------------------------------|
B|--------------------------------------------------------------------------|
G|--------------------------------------------------------------------------|
D|--------------------------------------------------5--5--5--5--7--7--7--7--|
A|-------------------------20--20--20---------------5--5--5--5--7--7--7--7--|
E|-12--12--12--0---0---0---15--15--15--0---0---0----5--5--5--5--7--7--7--7--|
e|--------------------------------------------------------------------------|
B|--------------------------------------------------------------------------|
G|--------------------------------------------------------------------------|
D|--------------------------------------------------5--5--5--5--7--7--7--7--|
A|-------------------------20--20--20---------------5--5--5--5--7--7--7--7--|
E|-12--12--12--0---0---0---15--15--15--0---0---0----5--5--5--5--7--7--7--7--|
e|--------------------------------------------------------------------------|
B|--------------------------------------------------------------------------|
G|--------------------------------------------------------------------------|
D|--------------------------------------------------5--5--5--5--7--7--7--7--|
A|-------------------------20--20--20---------------5--5--5--5--7--7--7--7--|
E|-12--12--12--0---0---0---15--15--15--0---0---0----5--5--5--5--7--7--7--7--|
e|--------------------------------------------------------------------------|
B|--------------------------------------------------------------------------|
G|--------------------------------------------------------------------------|
D|--------------------------------------------------5--5--5--5--3--3--3--3--|
A|-------------------------20--20--20---------------5--5--5--5--3--3--3--3--|
E|-12--12--12--0---0---0---15--15--15--0---0---0----5--5--5--5--3--3--3--3--|
“You can go, you can give up trying” 2:33 – 3:08
Guitar 1
e|--------------------------------------------------------------------------|
B|--------------------------------------------------------------------------|
G|--------------------------------------------------------------------------|
D|-8-8-8-8-8-8-8-8-8-8-8-8-8-8-8-8-8-8-8-8-8-8-8-8-8-8-8-8-8-8-8-8----------|
A|-8-8-8-8-8-8-8-8-8-8-8-8-8-8-8-8-8-8-8-8-8-8-8-8-8-8-8-8-8-8-8-8----------|
E|-8-8-8-8-8-8-8-8-8-8-8-8-8-8-8-8-8-8-8-8-8-8-8-8-8-8-8-8-8-8-8-8----------|
e|--------------------------------------------------------------------------|
B|--------------------------------------------------------------------------|
G|--------------------------------------------------------------------------|
D|-----7-7-7-7-7-7-7-7-7-7-7-7-7-7-----7-7-7-7-7-7-7-7-7-7-7-7-7-7----------|
A|-----5-5-5-5-5-5-5-5-5-5-5-5-5-5-----5-5-5-5-5-5-5-5-5-5-5-5-5-5----------|
E|-0---0-0-0-0-0-0-0-0-0-0-0-0-0-0-0---0-0-0-0-0-0-0-0-0-0-0-0-0-0----------|
e|--------------------------------------------------------------------------|
B|--------------------------------------------------------------------------|
G|--------------------------------------------------------------------------|
D|-8-8-8-8-8-8-8-8-8-8-8-8-8-8-8-8-10101010101010101010101010101010---------|
A|-8-8-8-8-8-8-8-8-8-8-8-8-8-8-8-8-10101010101010101010101010101010---------|
E|-8-8-8-8-8-8-8-8-8-8-8-8-8-8-8-8-10101010101010101010101010101010---------|
e|--------------------------------------------------------------------------|
B|--------------------------------------------------------------------------|
G|--------------------------------------------------------------------------|
D|-0------------------------------------------------------------------------|
A|-0------------------------------------------------------------------------|
E|-0------------------------------------------------------------------------|
e|--------------------------------------------------------------------------|
B|--------------------------------------------------------------------------|
G|--------------------------------------------------------------------------|
D|-8-8-8-8-8-8-8-8-8-8-8-8-8-8-8-8-8-8-8-8-8-8-8-8-8-8-8-8-8-8-8-8----------|
A|-8-8-8-8-8-8-8-8-8-8-8-8-8-8-8-8-8-8-8-8-8-8-8-8-8-8-8-8-8-8-8-8----------|
E|-8-8-8-8-8-8-8-8-8-8-8-8-8-8-8-8-8-8-8-8-8-8-8-8-8-8-8-8-8-8-8-8----------|
e|--------------------------------------------------------------------------|
B|--------------------------------------------------------------------------|
G|--------------------------------------------------------------------------|
D|-----7-7-7-7-7-7-7-7-7-7-7-7-7-7-----7-7-7-7-7-7-7-7-7-7-7-7-7-7----------|
A|-----5-5-5-5-5-5-5-5-5-5-5-5-5-5-----5-5-5-5-5-5-5-5-5-5-5-5-5-5----------|
E|-0---0-0-0-0-0-0-0-0-0-0-0-0-0-0-0---0-0-0-0-0-0-0-0-0-0-0-0-0-0----------|
e|--------------------------------------------------------------------------|
B|--------------------------------------------------------------------------|
G|--------------------------------------------------------------------------|
D|-8-8-8-8-8-8-8-8-8-8-8-8-8-8-8-8-10101010101010101010101010101010---------|
A|-8-8-8-8-8-8-8-8-8-8-8-8-8-8-8-8-10101010101010101010101010101010---------|
E|-8-8-8-8-8-8-8-8-8-8-8-8-8-8-8-8-10101010101010101010101010101010---------|
e|--------------------------------------------------------------------------|
B|--------------------------------------------------------------------------|
G|--------------------------------------------------------------------------|
D|-0------------------------------------------------------------------------|
A|-0------------------------------------------------------------------------|
E|-0---------------------------------------------------0---0---0------------|
Guitar 2
e|--------------------------------------------------------------------------|
B|--------------------------------------------------------------------------|
G|-7-7-7-7-7-7-7-7-5-5-5-5-5-5-5-5-9-9-9-9-9-9-9-9-5-5-5-5-5-5-5-5----------|
D|-x-x-x-x-x-x-x-x-x-x-x-x-x-x-x-x-x-x-x-x-x-x-x-x-x-x-x-x-x-x-x-x----------|
A|-5-5-5-5-5-5-5-5-3-3-3-3-3-3-3-3-7-7-7-7-7-7-7-7-3-3-3-3-3-3-3-3----------|
E|--------------------------------------------------------------------------|
e|--------------------------------------------------------------------------|
B|--------------------------------------------------------------------------|
G|--------------------------------------------------------------------------|
D|--------------------------------------------------------------------------|
A|--------------------------------------------------------------------------|
E|-0-------------------------------0----------------------------------------|
e|--------------------------------------------------------------------------|
B|--------------------------------------------------------------------------|
G|-7-7-7-7-7-7-7-7-7-7-7-7-7-7-7-7-9-9-9-9-9-9-9-9-9-9-9-9-9-9-9-9----------|
D|-x-x-x-x-x-x-x-x-x-x-x-x-x-x-x-x-x-x-x-x-x-x-x-x-x-x-x-x-x-x-x-x----------|
A|-5-5-5-5-5-5-5-5-5-5-5-5-5-5-5-5-7-7-7-7-7-7-7-7-7-7-7-7-7-7-7-7----------|
E|--------------------------------------------------------------------------|
e|--------------------------------------------------------------------------|
B|--------------------------------------------------------------------------|
G|-10--------------9---------------7---------------5------------------------|
D|-x---------------x---------------x---------------x------------------------|
A|-8---------------7---------------5---------------3------------------------|
E|--------------------------------------------------------------------------|
e|--------------------------------------------------------------------------|
B|--------------------------------------------------------------------------|
G|-7-7-7-7-7-7-7-7-5-5-5-5-5-5-5-5-9-9-9-9-9-9-9-9-5-5-5-5-5-5-5-5----------|
D|-x-x-x-x-x-x-x-x-x-x-x-x-x-x-x-x-x-x-x-x-x-x-x-x-x-x-x-x-x-x-x-x----------|
A|-5-5-5-5-5-5-5-5-3-3-3-3-3-3-3-3-7-7-7-7-7-7-7-7-3-3-3-3-3-3-3-3----------|
E|--------------------------------------------------------------------------|
e|--------------------------------------------------------------------------|
B|--------------------------------------------------------------------------|
G|--------------------------------------------------------------------------|
D|--------------------------------------------------------------------------|
A|--------------------------------------------------------------------------|
E|-0-------------------------------0----------------------------------------|
e|--------------------------------------------------------------------------|
B|--------------------------------------------------------------------------|
G|-7-7-7-7-7-7-7-7-7-7-7-7-7-7-7-7-9-9-9-9-9-9-9-9-9-9-9-9-9-9-9-9----------|
D|-x-x-x-x-x-x-x-x-x-x-x-x-x-x-x-x-x-x-x-x-x-x-x-x-x-x-x-x-x-x-x-x----------|
A|-5-5-5-5-5-5-5-5-5-5-5-5-5-5-5-5-7-7-7-7-7-7-7-7-7-7-7-7-7-7-7-7----------|
E|--------------------------------------------------------------------------|
e|--------------------------------------------------------------------------|
B|--------------------------------------------------------------------------|
G|--------------------------------------------------------------------------|
D|------------------------------7-----8-------------------------------------|
A|----------5-6-------9-6---------6-5----------6-3-5------------------------|
E|-000-000-------000-------000-----------000----------000---0----0----0-----|
... ...       ...       ...           ...          ...
Guitar 3 – Tremolo picking (In Background)
e|-22-20----------22-20----------22-20----------22-20-----------------------|
B|-------22-23-22-------22-20-18-------22-23-22-----------------------------|
G|--------------------------------------------------------------------------|
D|--------------------------------------------------------------------------|
A|--------------------------------------------------------------------------|
E|--------------------------------------------------------------------------|
“Let’s play a game of Russian Roulette” 3:09 – 3:32
Guitars 1 and 2
e|--------------------------------------------------------------------------|
B|--------------------------------------------------------------------------|
G|--------------------------------------------------------------------------|
D|------------------------------7--------------------------8-5-7------------|
A|----------5-6-------9-6---------6-5----------6-3-5--------------0-0-1-----|
E|-000-000-------000-------000-----------000----------000---------0-0-1-----|
... ...       ...       ...           ...          ...         . .
e|--------------------------------------------------------------------------|
B|--------------------------------------------------------------------------|
G|--------------------------------------------------------------------------|
D|------------------------------7-------------------------------------------|
A|----------5-6-------9-6---------6-5-------6-3-5-------3-0----3-0---0------|
E|-0-0-0-0-------000-------000---------000---------000------3------3--------|
. . . .       ...       ...         ...         ...
e|--------------------------------------------------------------------------|
B|--------------------------------------------------------------------------|
G|--------------------------------------------------------------------------|
D|--------------------------------------------------------------------------|
A|------------------------------0-----1--------------------------0-0-1------|
E|-000-000--0h1--000--4p1--000----0-1----000--0-0-0--000--0-0-0--0-0-1------|
... ...       ...       ...           ...         ...         . .
e|--------------------------------------------------------------------------|
B|--------------------------------------------------------------------------|
G|--------------------------------------------------------------------------|
D|---------------------------------------0-----4-3-4-----4-3-1--------------|
A|------------------------------0-----1--0-----4-3-4-----4-3-1--------------|
E|-000-000--0h1--000--4p1--000----0-1----0-----4-3-4-----4-3-1--------------|
... ...       ...       ...                 . .       . .
“Alive” 3:33 – 4:03
Guitar 1
e|--------------------------------------------------------------------------|
B|--------------------------------------------------------------------------|
G|--------------------------------------------------------------------------|
D|--------------------------------------------------------------------------|
A|--------------------------------------------------------------------------|
E|-0-0-12-0-12-0-0-13-0-13-0-12-16-13-12-13~~-0-12-0-12-0-0-0-13-13-13-13-1-|
e|--------------------------------------------------------------------------|
B|--------------------------------------------------------------------------|
G|--------------------------------------------------------------------------|
D|--------------------------------------------------------------------------|
A|--------------------------------------------------------------------------|
E|-1--1--1--0-0-12-0-12-0-0-13-0-13-0-12-16-13-12-13~~-0-12-0-12-0-0-0-13-13|
e|-------------------------|
B|-------------------------|
G|-------(4)---------------|
D|-------------------------|
A|-------------------------|
E|-13-13-------------------|
e|--------------------------------------------------------------------------|
B|--------------------------------------------------------------------------|
G|--------------------------------------------------------------------------|
D|--------------------------------------------------------------------------|
A|--------------------------------------------------------------------------|
E|-0-12-0-12-0-12-0-12-0-13-0-13-0-16-0-16~-12-0-12-0-12-0-12-0-13-0-13-0-10|
e|-------------------------|
B|-------------------------|
G|-------------------------|
D|-------------------------|
A|-------------------------|
E|-10-10-------------------|
e|--------------------------------------------------------------------------|
B|--------------------------------------------------------------------------|
G|--------------------------------------------------------------------------|
D|--------------------------------------------------------------------------|
A|--------------------------------------------------------------------------|
E|-0-12-0-12-0-12-0-12-0-13-0-13-0-16-0-16~-12-0-12-0-12-0-12-0-13-0-13-0-10|
e|--------------------------------------------------------------------------|
B|--------------------------------------------------------------------------|
G|--------------------------------------------------------------------------|
D|-------0------------------------------------------------------------------|
A|-------0----------------------------------------------------------0-0-----|
E|-10-10-0----------------------------------------------------------0-0-----|
. .
Guitar 2
e|--------------------------------------------------------------------------|
B|--------------------------------------------------------------------------|
G|--------------------------------------------------------------------------|
D|-0------------------------------------------------------------------------|
A|-0------------------------------------------------------------------------|
E|-0----------13-13-13-13-1-1-1-1--------------------------13-13-13-13------|
e|--------------------------------------------------------------------------|
B|--------------------------------------------------------------------------|
G|--------------------------------------------------------------------------|
D|--------------------------------------------------------------------------|
A|--------------------------------------------------------------------------|
E|-0-12-0-12-0-12-0-12-0-13-0-13-0-16-0-16~-12-0-12-0-12-0-12-0-13-0-13-0-10|
e|-------------------------|
B|-------------------------|
G|-------------------------|
D|-------------------------|
A|-------------------------|
E|-10-10-------------------|
e|--------------------------------------------------------------------------|
B|--------------------------------------------------------------------------|
G|--------------------------------------------------------------------------|
D|--------------------------------------------------------------------------|
A|--------------------------------------------------------------------------|
E|-0-12-0-12-0-12-0-12-0-13-0-13-0-16-0-16~-12-0-12-0-12-0-12-0-13-0-13-0-10|
e|--------------------------------------------------------------------------|
B|--------------------------------------------------------------------------|
G|--------------------------------------------------------------------------|
D|-------0------------------------------------------------------------------|
A|-------0---------------------------------------6-3-5--------------0-0-----|
E|-10-10-0----------------------------------000---------000--8-5-7--0-0-----|
...         ...         . .
“OH!” 4:04 – 4:31
Guitar 1
e|--------------------------------------------------------------------------|
B|--------------------------------------------------------------------------|
G|--------------------------------------------------------------------------|
D|--------------------------------------------------------------------------|
A|------6-3-5------------------------------6-3-5----------------------------|
E|-000---------000--8-5-7----0-4-1-0--000---------000--4-4-4-4-1-1-1-1------|
...         ...                    ...         ...
e|--------------------------------------------------------------------------|
B|--------------------------------------------------------------------------|
G|--------------------------------------------------------------------------|
D|--------------------------------------------------------------------------|
A|------6-3-5---------------------------------------------------------------|
E|-000---------000--8-5-7----0-4-1-0-4-4-4-4-4-4-4-4-1-1-1-1-1-1-1-1--------|
...         ...
e|--------------------------------------------------------------------------|
B|--------------------------------------------------------------------------|
G|--------------------------------------------------------------------------|
D|--------------------------------------------------------------------------|
A|--------------------------------------------------------------------------|
E|-000-------------------------------------------------4-4-4-4-1-1-1-1------|
...
e|--------------------------------------------------------------------------|
B|--------------------------------------------------------------------------|
G|--------------------------------------------------------------------------|
D|--------------------------------------------------------------------------|
A|------6-3-5---------------------------------------------------------------|
E|-000---------000--8-5-7----0-4-1-0-4-4-4-4-4-4-4-4-1-1-1-1-1-1-1-1--------|
...         ...
Guitar 2
e|--------------------------------------------------------------------------|
B|--------------------------------------------------------------------------|
G|--------------------------------------------------------------------------|
D|--------------------------------------------------------------------------|
A|------6-3-5------------------------------6-3-5----------------------------|
E|-000---------000--8-5-7----0-4-1-0--000---------000--4-4-4-4-1-1-1-1------|
...         ...                    ...         ...
e|--------------------------------------------------------------------------|
B|--------------------------------------------------------------------------|
G|--------------------------------------------------------------------------|
D|--------------------------------------------------------------------------|
A|------6-3-5---------------------------------------------------------------|
E|-000---------000--8-5-7----0-4-1-0-4-4-4-4-4-4-4-4-1-1-1-1-1-1-1-1--------|
...         ...
e|--------------------------------------------------------------------------|
B|--------------------------------------------------------------------------|
G|--------------------------------------------------------------------------|
D|--------------------------------------------------------------------------|
A|------6-3-5------------------------------6-3-5----------------------------|
E|-000---------000--8-5-7----0-4-1-0--000---------000--4-4-4-4-1-1-1-1------|
...         ...                    ...         ...
e|--------------------------------------------------------------------------|
B|--------------------------------------------------------------------------|
G|--------------------------------------------------------------------------|
D|--------------------------------------------------------------------------|
A|------6-3-5---------------------------------------------------------------|
E|-000---------000--8-5-7----0-4-1-0-4-4-4-4-4-4-4-4-1-1-1-1-1-1-1-1--------|
...         ...
************************************
| .   palm mute
| /   slide up
| \   slide down
| h   hammer-on
| p   pull-off
| ~   vibrato
| ()  harmonic
| x   Mute note
************************************

ĂŽnscrie-te la newsletter


Like us on Facebook