Black And Blue Tab - Bring Me the Horizon






--------------------------------------------------------------------------
Bring Me The Horizon - Black And Blue
--------------------------------------------------------------------------
Tabbed by: ska-me
Email: ska-me@hotmail.co.uk

Tuning: B F# B E G# C#

guitar 1 (top staff) - left speaker
guitar 2 (bottom staff) - right speaker

/ slide upwards
 slide downwards
t - tremolo
h p - hammer one/pull off
~ - vibrato
* - palm mute
[] - pinch harmonic


|-------------------------------|-------------------------------------|
|-------------------------------|-------------------------------------|
|-------------------------------|-------------------7h10p7-----6h9p6--|
|-------------------------------|-------------------------------------|
|-0-0-6--6--3-5-0-0-0-0-0-0-0-0-|-0-0-6--6--3-5-0-0--------0-0--------|
|-0-0-----------0-0-0-0-0-0-0-0-|-0-0-----------0-0--------0-0--------|
| * *           * * * * * * * *   * *           * *        * *
|
|-------------------------------|-------------------------------------|
|-------------------------------|-------------------------------------|
|-------------------------------|-------------------------------------|
|-------------------------------|-------------------------------------|
|-------------------------------|---------------0-0-5h8p5--0-0-4h7p4--|
|-------------------------------|---------------0-0--------0-0--------|
                                                * *        * *

|-------------------------------------------------------------------|
|-------------------------------------------------------------------|
|------------------------------------------------7h10p7-----6h9p6---|
|-------------------------------------------------------------------|
|-0-0-6-6-3-5--0-0-0-0-0-0-0-0---0-0-6-6-3-5-0-0--------0-0-------0-|
|-0-0----------0-0-0-0-0-0-0-0---0-0---------0-0--------0-0-------0-|
| * *          * * * * * * * *   * *         * *        * *       *
|
|-------------------------------------------------------------------|
|-------------------------------------------------------------------|
|-----------------------------------------------10h13p10---9h12p9---|
|-------------------------------------------------------------------|
|-0------------------------------------------0-0--------0-0-------0-|
|-0------------------------------------------0-0--------0-0-------0-|
                                             * *        * *       *

|---------------9-12---|
|------------11--------|
|------9-12------------|
|-8-11-----------------|
|----------------------|
|----------------------|
|
|
|---------------6--9---|
|-------------8--------|
|------6--9------------|
|-5--8-----------------|
|----------------------|
|----------------------|


|-------------------------------|-----------------------------------|
|-------------------------------|-----------------------------------|
|-------------------------------|-------------------7h10p7-----6h9p6|
|-------------------------------|-----------------------------------|
|-0-0-6--6--3-5-0-0-0-0-0-0-0-0-|-0-0-6--6--3-5-0-0--------0-0------|
|-0-0-----------0-0-0-0-0-0-0-0-|-0-0-----------0-0--------0-0------|
| * *           * * * * * * * *   * *           * *        * *
|
|-------------------------------|-----------------------------------|
|-------------------------------|-----------------------------------|
|-------------------------------|-----------------------------------|
|-------------------------------|-----------------------------------|
|-0-0-6--6--3-5-0-0-0-0-0-0-0-0-|-0-0-6--6--3-5-0-0-5h8p5--0-0-4h7p4|
|-0-0-----------0-0-0-0-0-0-0-0-|-0-0-----------0-0--------0-0------|
  * *           * * * * * * * *   * *           * *        * *
                                                                           x2


|-------------------------------|---------------------------------------|
|-------------------------------|---------------------------------------|
|-------------------------------|-------------------10h13p10-----9h12p9-|
|-------------------------------|---------------------------------------|
|-0-0-6--6--3-5-0-0-0-0-0-0-0-0-|-0-0-6--6--3-5-0-0----------0-0--------|
|-0-0-----------0-0-0-0-0-0-0-0-|-0-0-----------0-0----------0-0--------|
| * *           * * * * * * * *   * *           * *          * *
|
|-------------------------------|--------------------------------------|
|-------------------------------|--------------------------------------|
|-------------------------------|-------------------7h10p7-----6h9p6---|
|-------------------------------|--------------------------------------|
|-0-0-6--6--3-5-0-0-0-0-0-0-0-0-|-0-0-6--6--3-5-0-0--------0-0---------|
|-0-0-----------0-0-0-0-0-0-0-0-|-0-0-----------0-0--------0-0---------|
  * *           * * * * * * * *   * *           * *        * *

|--------------6--9----|
|------------8---------|
|------6--9------------|
|-5--8-----------------|
|----------------------|
|----------------------|
|
|--------------9-12----|
|-----------11---------|
|------9-12------------|
|-8-11-----------------|
|----------------------|
|----------------------|


|--------------------------------------------------------------------------|
|--------------------------------------------------------------------------|
|--------------------------------------------------------------------------|
|--------------------------------------------------------------------------|
|-00-5h8p50-05h8p5-0-05h8p5-0-05h8p5-0-07h10p7-0-07h10p7-0-04h7p4-0-04h7p4-|
|-00------0-0------0-0------0-0------0-0-------0-0-------0-0------0-0------|
| **      * *      * *      * *      * *       * *       * *      * *
|                                                                         x2
|--------------------------------------------------------------------------|
|--------------------------------------------------------------------------|
|--------------------------------------------------------------------------|
|--------------------------------------------------------------------------|
|-0-05h8p5-0-05h8p5-0-05h8p5-0-05h8p5-0-07h10p7-0-07h10p7-0-04h7p4-0-04h7p4|
|-0-0------0-0------0-0------0-0------0-0-------0-0-------0-0------0-0-----|
  * *      * *      * *      * *      * *       * *       * *      * *

----------------------------------------------------------------------------|
----------------------------------------------------------------------------|
----------------------------------------------------------------------------|
----------------------------------------------------------------------------|
008h12p8-008h12p8-008h12p8-008h12p8-0010h13p10-0010h13p10-007h10p7-007h10p7-|
00-------00-------00-------00-------00---------00---------00-------00-------|
**       **       **       **       **         **         **       **
                                                                          x2
|--------------------------------------------------------------------------|
|--------------------------------------------------------------------------|
|--------------------------------------------------------------------------|
|--------------------------------------------------------------------------|
|-0-05h8p5-0-05h8p5-0-05h8p5-0-05h8p5-0-07h10p7-0-07h10p7-0-04h7p4-0-04h7p4|
|-0-0------0-0------0-0------0-0------0-0-------0-0-------0-0------0-0-----|
  * *      * *      * *      * *      * *       * *       * *      * *

|-----------------|---------------------------------------------|
|-----------------|---------------------------------------------|
|-----------------|---------------------------------------------|
|-----------------|---------------------------------------------|
|-----------------|-----5h8p5-----5h8p5-----7h10p7-----4h7p4----|
|-----------------|-8-8-------8-8-------5-5--------7-7----------|
|                   * *       * *       * *        * *
|
|-----------------|---------------------------------------------|
|-----------------|---------------------------------------------|
|-----------------|---------------------------------------------|
|-------8-7-5-----|---------------------------------------------|
|---7-8-------8-7-|-----5h8p5-----5h8p5-----7h10p7-----4h7p4----|
|-0---------------|-8-8-------8-8-------5-5--------7-7----------|
  t t t t t t t t   * *       * *       * *        * *

|-------------------------------------------------------------|
|-------------------------------------------------------------|
|-------------------------------------------------------------|
|-------8-7-5-------------------------------------------------|
|---7-8-------8-7-----5h8p5-----5h8p5-----7h10p7-----4h7p4----|
|-0---------------8-8-------8-8-------5-5--------7-7----------|
| t t t t t t t t * *       * *       * *        * *
|
|-------------------------------------------------------------|
|-------------------------------------------------------------|
|-------------------------------------------------------------|
|-------8-7-5-------------------------------------------------|
|---7-8-------8-7-----5h8p5-----5h8p5-----7h10p7-----4h7p4----|
|-0---------------8-8-------8-8-------5-5--------7-7----------|
  t t t t t t t t * *       * *       * *        * *

|-----------------------------------------------------|
|-----------------------------------------------------|
|-----------------------------------------------------|
|-----------8--7--5-----------------------------------|
|-----7--8-----------8--7-----5--7--8-----5-----4-----|
|--0-----------------------8-----------5-----7--------|
|  t  t  t  t  t  t  t  t  t  t  t  t  t  t  t  t
|
|-----------------------------------------------------|
|-----------------------------------------------------|
|-----------------------------------------------------|
|-----------8--7--5-----------------------------------|
|-----7--8-----------8--7-----5--7--8-----5-----4-----|
|--0-----------------------8-----------5-----7--------|
   t  t  t  t  t  t  t  t  t  t  t  t  t  t  t  t

|-------------------------------|
|-------------------------------|
|-------------------------------|
|-------------------------------|
|--0-0-0--0-0-0---0-------------|
|--0-0-0--0-0-0---0-------------|
|  * * *  * * *   *               x4
|
|-------------------------------|
|-------------------------------|
|-------------------------------|
|-------------------------------|
|-0-0-0--0-0-0----0-------------|
|-0-0-0--0-0-0----0-------------|
  * * *  * * *    *

-----------------------------------------------------------------------------|
-----------------------------------------------------------------------------|
-----------------------------------------------------------------------------|
-----------------------------------------------------------------------------|
0-0-0-0-0-0-0-0-0--0-0-0-0-0-0-0-0-0--0-0-0-0-0-0-0-0-0----------------------|3]
0-0-0-0-0-0-0-0-0--0-0-0-0-0-0-0-0-0--0-0-0-0-0-0-0-0-0--0-0-0-0-0-0-3-0-----|
* * * * * * * * *  * * * * * * * * *  * * * * * * * * *
|
-----------------------------------------------------------------------------|
-----------------------------------------------------------------------------|
-----------------------------------------------------------------------------|
-----------------------------------------------------------------------------|
0-0-0-0-0-0-0-0-0--0-0-0-0-0-0-0-0-0--0-0-0-0-0-0-0-0-0----------------------|3]
0-0-0-0-0-0-0-0-0--0-0-0-0-0-0-0-0-0--0-0-0-0-0-0-0-0-0--0-0-0-0-0-0-3-0-----|
* * * * * * * * *  * * * * * * * * *  * * * * * * * * *

|--------------------------------------------------------------------------|
|--------------------------------------------------------------------------|
|----------------------------------------------------------9/-10/12/14/15--|
|----------------------------------------------------------x--x--x--x--x---|
|-0-0-0-0-0-0-0-0-0--0-0-0-0-0-0-0-0-0--0-0-0-0-0-0-0-0-0--7/-8/-10/12/13--|
|-0-0-0-0-0-0-0-0-0--0-0-0-0-0-0-0-0-0--0-0-0-0-0-0-0-0-0------------------|
| * * * * * * * * *  * * * * * * * * *  * * * * * * * * *
|
|--------------------------------------------------------------------------|
|--------------------------------------------------------------------------|
|----------------------------------------------------------6/-7/-9/-10/12--|
|----------------------------------------------------------x--x--x--x--x---|
|-0-0-0-0-0-0-0-0-0--0-0-0-0-0-0-0-0-0--0-0-0-0-0-0-0-0-0--4/-5/-7/-8/-10--|
|-0-0-0-0-0-0-0-0-0--0-0-0-0-0-0-0-0-0--0-0-0-0-0-0-0-0-0------------------|
  * * * * * * * * *  * * * * * * * * *  * * * * * * * * *

|-------------------------------------------------------------|
|-------------------------------------------------------------|
|----------------------9/-10--10-12--12/14--14/15-------------|
|-----------------------x-x---x--x---x--x---x--x--------------|
|-0-0-0--0-0-0--0-0-0--7/-8---8/10---10/12--12/13--0-0-0--[3]-|
|-0-0-0--0-0-0--0-0-0------------------------------0-0-0------|
| * * *  * * *  * * *                              * * *
|                                                                 x2
|-------------------------------------------------------------|
|-------------------------------------------------------------|
|----------------------6/-7---7--9---9/10--10/12--------------|
|-----------------------x-x---x--x---x-x---x--x---------------|
|-0-0-0--0-0-0--0-0-0--4/-5---5/-7---7/8---8/10----0-0-0--[3]-|
|-0-0-0--0-0-0--0-0-0------------------------------0-0-0------|
  * * *  * * *  * * *                              * * *

|---------------------|---------------------|
|---------------------|---------------------|
|---------------------|---------------------|
|-----------3---------|-----------3---------|
|-0-0-3-1-0-1-0-0-[2]-|-0-0-3-1-0-1-0-0-[2]-|
|-0-0-3-1-0---0-0-----|-0-0-3-1-0---0-0-----|
| * * * * *   * *       * * * * *   * *
|
|---------------------|---------------------|
|---------------------|---------------------|
|---------------------|---------------------|
|-----------3---------|-----------3---------|
|-0-0-3-1-0-1-0-0-[2]-|-0-0-3-1-0-1-0-0-[2]-|
|-0-0-3-1-0---0-0-----|-0-0-3-1-0---0-0-----|
  * * * * *   * *       * * * * *   * *

|---------------------|----------|
|---------------------|----------|              x2
|---------------------|----------|
|-----------3---------|----------|
|-0-0-3-1-0-1-0-0-[2]-|-5-4-8-7--|
|-0-0-3-1-0---0-0-----|----------|
| * * * * *   * *       t t t t
|
|---------------------|----------|
|---------------------|----------|
|---------------------|----------|
|-----------3---------|----------|
|-0-0-3-1-0-1-0-0-[2]-|-5-4-8-7--|
|-0-0-3-1-0---0-0-----|----------|
  * * * * *   * *       t t t t

|----------------|---------------------|----------------|
|----------------|---------------------|----------------|
|----------------|---------------------|----------------|
|-----------3----|-----------3---------|-----------3----|
|-0-0-3-1-0-1-0--|-0-0-3-1-0-1-0-0-[2]-|-0-0-3-1-0-1-0--|
|-0-0-3-1-0---0--|-0-0-3-1-0---0-0-----|-0-0-3-1-0---0--|
| * * * * *   *    * * * * *   * *       * * * * *   *
|
|----------------|---------------------|----------------|
|----------------|---------------------|----------------|
|----------------|---------------------|----------------|
|-----------3----|-----------3---------|-----------3----|
|-0-0-3-1-0-1-0--|-0-0-3-1-0-1-0-0-[2]-|-0-0-3-1-0-1-0--|
|-0-0-3-1-0---0--|-0-0-3-1-0---0-0-----|-0-0-3-1-0---0--|
  * * * * *   *    * * * * *   * *       * * * * *   *

|-------------------------------------------------|
|-------------------------------------------------|
|--------8-11--------9-12-------10-13-------11-14-|
|--7-10--------8-11--------9-12-------10-13-------|
|-------------------------------------------------|
|-------------------------------------------------|
|
|-------------------------------------------------|
|-------------------------------------------------|
|-------------------------------------------------|
|-------16-19-------17-20-------18-21-------19-22-|
|-15-18-------16-19-------17-20-------18-21-------|
|-------------------------------------------------|


|-------------------------------------------------------|
|-------------------------------------------------------|
|---------------[2]-------------------------------------|
|-----------3-----------------3-----------------3-------|
|-0-0-3-1-0-1-0-----0-0-3-1-0-1-0-[2]-0-0-3-1-0-1-0-----|
|-0-0-3-1-0---0-----0-0-3-1-0---0-----0-0-3-1-0---0-----|
| * * * * *   *     * * * * *   *     * * * * *   *
|
|-------------------------------------------------------|
|-------------------------------------------------------|
|-------------------------------------------------------|
|-----------3-----------------3-----------------3-------|
|-0-0-3-1-0-1-0-----0-0-3-1-0-1-0-[2]-0-0-3-1-0-1-0-----|
|-0-0-3-1-0---0-----0-0-3-1-0---0-----0-0-3-1-0---0-----|
  * * * * *   *     * * * * *   *     * * * * *   *

----------------------------------------------------------------------------|
----------------------------------------------------------------------------|
----8-11----9-12----10-13-----11-14-----12-15-----13-16-----14-17-----15-18-|
7-10----8-11----9-12-----10-13-----11-14-----12-15-----13-16-----14-17------|
----------------------------------------------------------------------------|
----------------------------------------------------------------------------|

-----------------------------------------------------------------------------|
-----------------------------------------------------------------------------|
-------------------------------------------15-18-----16-19----17-20----18-21-|
-----16-19----17-20----18-21----19-22-14-17-----15-18----16-19-----17-20-----|
15-18----16-19-----17-20----18-21--------------------------------------------|
-----------------------------------------------------------------------------|


|----------------------------------------------|
|----------------------------------------------|
|----------------------------------------------|
|----------------------------------------------|
|-1-0---0-0-1-3-1-0------1-0----0-0-1-3-1-0----|
|-1-0---0-0-1-3-1-0------1-0----0-0-1-3-1-0----|
| *     * * * * *        *      * * * * *
|
|----------------------------------------------|
|----------------------------------------------|
|----------------------------------------------|
|----------------------------------------------|
|-1-0---0-0-1-3-1-0------1-0----0-0-1-3-1-0----|
|-1-0---0-0-1-3-1-0------1-0----0-0-1-3-1-0----|
  *     * * * * *        *      * * * * *

|--------------------------------------|
|--------------------------------------|
|--------------------------------------|
|--------------------------------------|
|-1-0----0-0-1-3-1-0----1-0----0-0-1-3-|
|-1-0----0-0-1-3-1-0----1-0----0-0-1-3-|
| *      * * * * *      *      * * * *
|
|--------------------------------------|
|--------------------------------------|
|--------------------------------------|
|--------------------------------------|
|-1-0----0-0-1-3-1-0----1-0----0-0-1-3-|
|-1-0----0-0-1-3-1-0----1-0----0-0-1-3-|
  *      * * * * *      * *    * * * *

|----------------------------------------|
|----------------------------------------|
|----------------------------------------|
|----------------------------------------|
|-5h8p5--7h10p7--5h8p5--4h7p4------------|
|------------------------------8h11p8----|
|
|----------------------------------------|
|----------------------------------------|
|----------------------------------------|
|----------------------------------------|
|-5h8p5--7h10p7--5h8p5--4h7p4------------|
|------------------------------8h11p8----|


|----------------------------------------------------------------------|
|----------------------------------------------------------------------|
|----------------------------------------------------------------------|
|----------------------------------------------------------------------|
|-1-0--0-0-1-3-1-0----1-0--0-0-1-3-1-0-0--0-0--0-0--0-0--0-0--0-0-0-0--|
|-1-0--0-0-1-3-1-0----1-0--0-0-1-3-1-0-0--0-0--0-0--0-0--0-0--0-0-0-0--|
| *    * * * * * *    *    * * * * * * *  * *  * *  * *  * *  * * * *
|
|----------------------------------------------------------------------|
|----------------------------------------------------------------------|
|----------------------------------------------------------------------|
|----------------------------------------------------------------------|
|-1-0--0-0-1-3-1-0----1-0--0-0-1-3-1-0---------------------------------|
|-1-0--0-0-1-3-1-0----1-0--0-0-1-3-1-0---------------------------------|
  *    * * * * * *    * *  * * * * * *


|--------------------------------------|
|--------------------------------------|
|--------------------------------------|
|--------------------------------------|
|-1-0----0-0-1-3-1-0----1-0----0-0-1-3-|
|-1-0----0-0-1-3-1-0----1-0----0-0-1-3-|
| *      * * * * *      *      * * * *
|
|--------------------------------------|
|--------------------------------------|
|--------------------------------------|
|--------------------------------------|
|-1-0----0-0-1-3-1-0----1-0----0-0-1-3-|
|-1-0----0-0-1-3-1-0----1-0----0-0-1-3-|
  *      * * * * *      * *    * * * *

|----------------------------------------|
|----------------------------------------|
|----------------------------------------|
|----------------------------------------|
|-5h8p5--7h10p7--5h8p5--4h7p4------------|
|------------------------------8h11p8----|
|
|----------------------------------------|
|----------------------------------------|
|----------------------------------------|
|----------------------------------------|
|-5h8p5--7h10p7--5h8p5--4h7p4------------|
|------------------------------8h11p8----|


|----------------------------------------------------------------------|
|----------------------------------------------------------------------|
|----------------------------------------------------------------------|
|----------------------------------------------------------------------|
|-1-0--0-0-1-3-1-0----1-0--0-0-1-3-1-0-0--0-0--0-0--0-0----------------|
|-1-0--0-0-1-3-1-0----1-0--0-0-1-3-1-0-0--0-0--0-0--0-0----------------|
| *    * * * * * *    *    * * * * * * *  * *  * *  * *
|
|----------------------------------------------------------------------|
|----------------------------------------------------------------------|
|----------------------------------------------------------------------|
|----------------------------------------------------------------------|
|-1-0--0-0-1-3-1-0----1-0--0-0-1-3-1-0---------------------------------|
|-1-0--0-0-1-3-1-0----1-0--0-0-1-3-1-0---------------------------------|
  *    * * * * * *    * *  * * * * * *


|--------------------------------------------------------------------------|
|--------------------------------------------------------------------------|
|--------------------------------------------------------------------------|
|--------------------------------------------------------------------------|
|-00-5h8p50-05h8p5-0-05h8p5-0-05h8p5-0-07h10p7-0-07h10p7-0-04h7p4-0-04h7p4-|
|-00------0-0------0-0------0-0------0-0-------0-0-------0-0------0-0------|
| **      * *      * *      * *      * *       * *       * *      * *
|                                                                      x3
|--------------------------------------------------------------------------|
|--------------------------------------------------------------------------|
|--------------------------------------------------------------------------|
|--------------------------------------------------------------------------|
|-0-05h8p5-0-05h8p5-0-05h8p5-0-05h8p5-0-07h10p7-0-07h10p7-0-04h7p4-0-04h7p4|
|-0-0------0-0------0-0------0-0------0-0-------0-0-------0-0------0-0-----|
  * *      * *      * *      * *      * *       * *       * *      * *

|-----------------------------|
|-----------------------------|
|-----------------------------|
|-----------------------------|
|-8--------10--------12-------|
|-----------------------------|
| t        t         t
|
|-----------------------------|
|-----------------------------|
|-----------------------------|
|-----------------------------|
|-5---------7---------8-------|
|-----------------------------|
  t         t         t

|-----------------|--------------|
|-----------------|--------------|
|-----------------|--------------|
|-----------------|--------------|
|-----------------|-8----5--7----|
|-----------------|-8----5--7----|
|
|
|-----------------|--------------|
|-----------------|--------------|
|-----------------|--------------|
|-------8-7-5-----|--------------|
|---7-8-------8-7-|-8----5--7----|
|-0---------------|-8----5--7----|
  t t t t t t t t

|-------------------------------------------------------------|
|-------------------------------------------------------------|
|-------------------------------------------------------------|
|-------8-7-5-------------------------------------------------|
|---7-8-------8-7-----5h8p5-----5h8p5-----7h10p7-----4h7p4----|
|-0---------------8-8-------8-8-------5-5--------7-7----------|
| t t t t t t t t * *       * *       * *        * *
|
|-------------------------------------------------------------|
|-------------------------------------------------------------|
|-------------------------------------------------------------|
|-------8-7-5-------------------------------------------------|
|---7-8-------8-7-----5h8p5-----5h8p5-----7h10p7-----4h7p4----|
|-0---------------8-8-------8-8-------5-5--------7-7----------|
  t t t t t t t t * *       * *       * *        * *

|-----------------------------------------------------|
|-----------------------------------------------------|
|-----------------------------------------------------|
|-----------------------------------------------------|
|-0-------------------------8-----------5-----7-------|
|-0-------------------------8-----------5-----7-------|
|
|
|-----------------------------------------------------|
|-----------------------------------------------------|
|-----------------------------------------------------|
|----------8---7---5----------------------------------|
|----7--8-------------8--7-----5--7--8-----5-----4----|
|-0-------------------------8-----------5-----7-------|
  t  t  t  t   t   t  t  t  t  t  t  t  t  t  t  t

|----------------------------------------|
|----------------------------------------|
|----------------------------------------|
|----------------------------------------|
|-0-------------------8--------5----7----|
|-0-------------------8--------5----7----|
|
|----------------------------------------|
|----------------------------------------|
|----------------------------------------|
|----------------------------------------|
|-0-------------------8--------5----7----|
|-0-------------------8--------5----7----|

                         [feedback noise]
|-----------------------------------------|
|-----------------------------------------|
|-----------------------------------------|
|-----------------------------------------|
|-0-------------------8-------------------|
|-0-------------------8-------------------|
|
|-----------------------------------------|
|-----------------------------------------|
|-----------------------------------------|
|-----------------------------------------|
|-0-------------------8--------5----7-----|
|-0-------------------8--------5----7-----|

SOLO

|-------10-10-------10-10-------10-|
|--13b----------13b--------13b-----|
|----------------------------------|
|----------------------------------|
|----------------------------------|
|----------------------------------|
|
|
|----------------------------------|
|----------------------------------|
|----------------------------------|
|----------------------------------|
|--------5-----------5-----5-------|
|--0--------0--0--------0--------0-|
   *        *  *        *        *

|-------10-10-------10-10-------10-|-10h13p10----10h13p10----10h13p10-|
|--13b---------13b---------13b-----|----------13----------13----------|
|----------------------------------|----------------------------------|
|----------------------------------|----------------------------------|
|----------------------------------|----------------------------------|
|----------------------------------|----------------------------------|
|
|
|----------------------------------|----------------------------------|
|----------------------------------|----------------------------------|
|----------------------------------|----------------------------------|
|----------------------------------|----------------------------------|
|--------5-----------5-----5-------|-----5--------5-----5-------------|
|--0--------0--0--------0--------0-|--8-----8--8-----8-----8----------|
   *        *  *        *        *    *     *  *     *     *

|----10h13p10-10h13p10----10h13p10-|
|-12-------------------12----------|
|----------------------------------|
|----------------------------------|
|----------------------------------|
|----------------------------------|
|
|
|----------------------------------|
|----------------------------------|
|----------------------------------|
|----------------------------------|
|-----8--------4-----4-------------|
|--5-----5--7-----7-----7----------|
   *     *  *     *     *

|--13b--------15p13p12-------|---------------------|
|----------------------10----|---------------------|
|-------------------------12-|-10---9-------(9)/---|
|----------------------------|---------------------|
|----------------------------|---------------------|
|----------------------------|---------------------|
|
|
|----------------------------|---------------------|
|----------------------------|---------------------|
|----------------------------|---------------------|
|----------------------------|---------------------|
|-------5------5-----5-------|----5-----5----5-----|
|--0------0-0-----0-----0----|--0---0-0---0------0-|
   *      * *     *     *       *   * *   *      *

|-17p15p13----------------------------------------------|
|----------17p15p13-18p17p15----------------------------|
|----------------------------17p15p14-15p14p12----------|
|----------------------------------------------15-14-12~|
|-------------------------------------------------------|
|-------------------------------------------------------|
|
|
|-------------------------------------------------------|
|-------------------------------------------------------|
|-------------------------------------------------------|
|-------------------------------------------------------|
|-----5--------5-----5--------7--------4-----4----------|
|--8-----8--8-----8-----8--5-----5--7-----7-----7-------|
   *     *  *     *     *  *     *  *     *     *

|--17p13p10-17p13p10-17p13-|-18p13p10-18p13p10-18p13--|
|--------------------------|--------------------------|
|--------------------------|--------------------------|
|--------------------------|--------------------------|
|--------------------------|--------------------------|
|--------------------------|--------------------------|
|
|--------------------------|--------------------------|
|--------------------------|--------------------------|
|--------------------------|--------------------------|
|--------------------------|--------------------------|
|---0----------------------|--0-----------------------|
|---0----------------------|--0-----------------------|


                                                                x2

|-20p13p10-20p13p10-20p13p10-20p13p10-20p13p10-20p13p10-20p13p10-20p13p10-|
|-------------------------------------------------------------------------|
|-------------------------------------------------------------------------|
|-------------------------------------------------------------------------|
|-------------------------------------------------------------------------|
|-------------------------------------------------------------------------|
|
|
|-------------------------------------------------------------------------|
|-------------------------------------------------------------------------|
|-------------------------------------------------------------------------|
|-------------------------------------------------------------------------|
|-----5--------5-----5--------8--------4-----4----------------------------|
|--8-----8--8-----8-----8--5-----5--7-----7-----7-------------------------|
   *     *  *     *     *  *     *  *     *     *

|-22p13p10-20p13p10-22p13p10-24p13p10-22p13p10--20p13p10-22p13p10-20p13p10-|
|--------------------------------------------------------------------------|
|--------------------------------------------------------------------------|
|--------------------------------------------------------------------------|
|--------------------------------------------------------------------------|
|--------------------------------------------------------------------------|
|
|
|--------------------------------------------------------------------------|
|--------------------------------------------------------------------------|
|--------------------------------------------------------------------------|
|--------------------------10--------8--------7---------------------------|
|--------5-----7-----8-----------------------------------------------------|
|---0--------------------------0--0-----0--0-------------------------------|
    t    t     t     t         *  *     *  *

|-22p13p10-20p13p10-22p13p10-24p13p10-22p13p10-20p13p10-22p13p10-20p13p10-|
|-------------------------------------------------------------------------|
|-------------------------------------------------------------------------|
|-------------------------------------------------------------------------|
|-------------------------------------------------------------------------|
|-------------------------------------------------------------------------|
|
|
|-------------------------------------------------------------------------|
|-------------------------------------------------------------------------|
|-------------------------------------------------------------------------|
|-------------------------------------------------------------------------|
|--------5-----7-----8-----------5-----------4----------------------------|
|--8-----------------------5-----------7----------------------------------|
   t     t     t     t     t     t     t     t

|-17p15p13-----------------------------|
|----------17p15p13--------------------|
|-------------------15p14p12-----------|
|----------------------------15p14p12-|
|--------------------------------------|
|--------------------------------------|
|
|--------------------------------------|
|--------------------------------------|
|--------------------------------------|
|--------------------------------------|
|--0-----------------------------------|
|--0-----------------------------------|


|-------------------------|
|-------------------------|
|-------------------------|
|-------------------------|
|-0----0-0--0-0---0-0-0---|
|-0----0-0--0-0---0-0-0---|
| *    * *  * *   * * *
|                             x8
|-------------------------|
|-------------------------|
|-------------------------|
|-------------------------|
|-0----0-0--0-0---0-0-0---|
|-0----0-0--0-0---0-0-0---|
  *    * *  * *   * * *

|------------------------------------------------|
|------------------------------------------------|
|------------------------------------------------|
|------------------------------------------------|
|-0-------------0-0----0-0---------0-0-0---------|
|-0-------------0-0----0-0---------0-0-0---------|
| *             * *    * *         * * *
|
|------------------------------------------------|
|------------------------------------------------|
|------------------------------------------------|
|--------------------------8-----7-----5-----[7]-|
|-------5-----9-----10---------------------------|
|-0-0-0---0-0---0-0----0-0---0-0---0-0---0-0-----|
  * * *   * *   * *    * *   * *   * *   * *

|---------------------------------------------------|
|---------------------------------------------------|
|---------------------------------------------------|
|---------------------------------------------------|
|-0-------------0-0----0--0---------0-0-0-----------|
|-0-------------0-0----0--0---------0-0-0-----------|
| *             * *    *  *         * * *
|
|---------------------------------------------------|
|---------------------------------------------------|
|------------------------10-9-7-9-7-6---7-6---6-----|
|-------------------------------------------8---8-5-|
|-------5-----9-----10------------------------------|
|-0-0-0---0-0---0-0---------------------------------|
  * * *   * *   * *

|------------------------------------------------|
|------------------------------------------------|
|------------------------------------------------|
|------------------------------------------------|
|-0-------------0-0----0-0-----------0-0-0-------|
|-0-------------0-0----0-0-----------0-0-0-------|
| *             * *    * *           * * *
|
|------------------------------------------------|
|------------------------------------------------|
|------------------------------------------------|
|--------------------------8-----7-----5-----[7]-|
|-------5-----9-----10---------------------------|
|-0-0-0---0-0---0-0----0-0---0-0---0-0---0-0-----|
  * * *   * *   * *    * *   * *   * *   * *

|--------------------------------------------------------|
|--------------------------------------------------------|
|------------------------10-9-7-9-7-6---7-6---6----------|
|-------------------------------------------8---8-5------|
|-0---------------------------------------------------0--|
|-0---------------------------------------------------0--|
| *
|
|--------------------------------------------------------|
|--------------------------------------------------------|
|-------------------------10-9-7-9-7-6---7-6---6---------|
|--------------------------------------------8---8-5-----|
|-------5-----9-----10--------------------------------0--|
|-0-0-0---0-0---0-0-----------------------------------0--|
  * * *   * *   * *

ĂŽnscrie-te la newsletter


Join the ranks ! LIKE us on Facebook