Blacklist Tab - Bring Me the Horizon






Artist: Bring Me The Horizon
Song: Blacklist
Album: There Is A Hell Believe Me I've Seen It. There Is A Heaven Let's Keep It A Secret (2010)
tabbed by: necriononguitar
e-mail (No freakin SPAM!): tim.rathgen@gmx.de
REAL FANS SUPPORT BANDS BY PURCHASING THEIR CDS!!!
. = Palm-Muted
~ = hold note
^ = vibrate
p = pull off
h = hammer on
/ = slide up
\ = slide down
* = harmonic
Tuning: Drop G (B string is needed)
Heaviest song on the record!
BMTH!!!
Note: I wrote this with onscreen keyboard since my actual broke, so please be nice!
Intro:   0:06 (Fade in)
E----------------------------------------------------------------------|
B----------------------------------------------------------------------|
G----------------------------------------------------------------------|
D----------------------------------------------------------------------|
A----------------------------------------------------------------------|
E---0-0-0-0---0-0-0---0-0-0-0-0-0-0---0-0-0---0-0-0---0-0-0-/11^-------|
E-------------------------------------------------------------|
B-------------------------------------------------------------|
G-------------------------------------------------------------|
D-------------------------------------------------------------|
A-------------------------------------------------------------|
E---0-0-0-0---0-0-0---0-0-0-0-0-0-0---0-0-0---0-0-0-0---------|
0:20
Guitar 1
E---------------------------------------------------------------|
B---------------------------------------------------------------|
G---------------------------------------------------------------|
D---------------------------------------------------------------|
A---------------------------------------------------------------|
E---0~--(keep that note til 11)----------/11^----0~-------------|
Guitar 2 (quitly on the left speaker)
E----------------------------------------------------------------------|
B----------------------------------------------------------------------|
G----------------------------------------------------------------------|
D----------------------------------------------------------------------|
A----------------------------------------------------------------------|
E---0-0-0-0---0-0-0---0-0-0-0-0-0-0---0-0-0---0-0-0---0-0-0-/11^-------|
E-------------------------------------------------------------|
B-------------------------------------------------------------|
G-------------------------------------------------------------|
D-------------------------------------------------------------|
A-------------------------------------------------------------|
E---0-0-0-0---0-0-0---0-0-0-0-0-0-0---0-0-0---0-0-0-----------|
0:34
Both Guitars from now on (unless i mention)
E----------------------------------------------------------------------|
B----------------------------------------------------------------------|
G----------------------------------------------------------------------|
D----------------------------------------------------------------------|  x4
A----------------------------------------------------------------------|
E---0-0-0-0---0-0-0---0-0-0-0-0-0-0---0-0-0---0-0-0---0-0-0-/11^-------|
1:01
E------------------------------------------------------------------|
B------------------------------------------------------------------|
G------------------------------------------------------------------|
D------------------------------------------------------------------| x2
A-----------------------------------------------------(1)----------|
E---12-12--12-12~----11-11-11---13-13--13-13~-----(13)\1~----------|
E---------------------------------------------|
B---------------------------------------------|
G---------------------------------------------|
D---------------------------------------------|
A---------------------------------------------|
E---0-0--0-0~---keep it for long...-----------|
1:29  \\ = slow down-slide
E----------------------------------------------------------|
B----------------------------------------------------------|
G----------------------------------------------------------|
D----------------------------------------------------------|
A----------------------------------------------------------|
E---12\\0----10-12-12----(/)16-16-16(\)13-13-13------------|
E------------------------------------------------------------|
B------------------------------------------------------------|
G------------------------------------------------------------|
D--(10)------------------------------------------------------|
A----------------------------(6-6-6-6-12-12-12)--------------|
E---10-13-12\\0---10-13-12----6-6-6-6-12-12-12---------------|
1:36
E----------------------------------------------------------|
B----------------------------------------------------------|
G----------------------------------------------------------|
D----------------------------------------------------------|
A----------------------------------------------------------|
E---12\\0----10-12-12----(/)16-16-16(\)13-13-13------------|
E-----------------------------------------------|
B-----------------------------------------------|
G-----------------------------------------------|
D--(10)--------(10)----------'ones'-------------|
A---------------------------31111-1-1-----------|
E---10-13-12----10-13-12----31111-1-1-----------|
1:42
Repeat 1:29 to 1:41
But play this instead of the very bit (1's and 3's)
E------------------------------------------|
B------------------------------------------|
G------------------------------------------|
D--(10)--------(10)------------------------|
A---------------------------1~---3~--------|
E---10-13-12----10-13-12----1~---3~--------|
1:56
E-------------------------------------------|
B-------------------------------------------|
G-------------------------------------------|
D-------------------------------------------|
A-------------------------------------------|
E---0-0-3-0-3^---0-0-3-0-3^---0--0--0-------|
E------------------------------------------------------------|
B------------------------------------------------------------|
G------------------------------------------------------------|
D---------------------------8--------------------------------|
A----------------------'thirteens'---------------------------|
E---0-0-3-0-3^---0-0-1313131313131313--10-10-10-10-----------|
2:03
E-------------------------------------------|
B-------------------------------------------|
G-------------------------------------------|
D-----------------------------x-x--x-x------|
A-----------------------------x-x--x-x------|
E---0-0-3-0-3^---0-0-3-0-3^---x-x--x-x------|
E------------------------------------------------------------|
B------------------------------------------------------------|
G------------------------------------------------------------|
D---------------------------8--------------------------------|
A----------------------'thirteens'---------------------------|
E---0-0-3-0-3^---0-0-1313131313131313--10-10-10-10-----------|
2:10
E-------------------------------------------|
B-------------------------------------------|
G-------------------------------------------|
D-------------------------------------------|
A-------------------------------------------|
E---0-0-3-0-3^---0-0-3-0-3~-----------------|
E------------------------------------------------------------|
B------------------------------------------------------------|
G------------------------------------------------------------|
D------------------------------------------------------------|
A--------------------13--13--13------------------------------|
E---0-0-3-0-3^---0-0-13--13--13--10-10-10-10-----------------|
.   .   .
2:17
E-------------------------------------------|
B-----------3 or 2-------3------------------|
G-------------------------------------------|
D-----------------------------x-x--x-x------|
A-----------------------------x-x--x-x------|
E---0-0-3-0-3^---0-0-3-0-3^---x-x--x-x------|
E------------------------------------------------------------|
B-----------3------------------------------------------------|
G------------------------------------------------------------|
D---------------------------8--------------------------------|
A----------------------'thirteens'---------------------------|
E---0-0-3-0-3^---0-0-1313131313131313--10-10-10-10-----------|
2:23   (1st guit 0 on G fading out)
E----------------------------------------------------------------------|
B----------------------------------------------------------------------|
G----------------------------------------------------------------------|
D----------------------------------------------------------------------|
A----------------------------------------------------------------------|
E---0-0-0-0-0-0----0-0-0-0-0-0----0-0-0-0-0-0-0-0-0-0-0-0-0-0----------|
E-----------------------------------------------------------------|
B-----------------------------------------------------------------|
G-----------------------------------------------------------------|
D---------------------------------------------x-x--x-x------------|
A---------------------------------------------x-x--x-x------------|
E---0-0-0-0-0-0----0-0-0-0-0-0----0-0-0-0-0-0-x-x--x-x------------|
2:38              2:44                                    left speaker
E-------------------------------------------------------------------------|
B-------------------------------------------------------------------------|
G-------------------------------------------------------------------------|
D-------------------------------------------------------------------------|
A-------------------------------------------------------------------------|
E---(0)~~~~-------10-12-12---10-12-12---10-12-12--12-12---------0---------|
Ok now repeat the part from 1:28 to 1:41
And the pinch at 3:02 is on the 10th fret on the G string (bend first#, hit and release)
meh-Solo at 3:13
E-----------------------------------------------------------|
B-----------------------------------------------------------|
G---14---17--19-19^----19-17--19b22-19~---17-19b22r19~------|
D-----------------------------------------------------------|
A-----------------------------------------------------------|
E-----------------------------------------------------------|
.
E-----------------------------------------------------|
B-----------------------------------------------------|
G-----------------------------------------------------|
D----------15--17-17b18r17~---15h17p15--12~-----------|
A---15h17---------------------------------------------|
E-----------------------------------------------------|
.      .
E---10------12------13-------15-------17------20--22^-----------|
B---13b15---15b17---16b18----17b19----19b21---------------------|
G---------------------------------------------------------------|
D---------------------------------------------------------------|
A---------------------------------------------------------------|
E---------------------------------------------------------------|
And im too tired to figure out the rest...
so yeah...

ĂŽnscrie-te la newsletter


Join the ranks ! LIKE us on Facebook