Blessed With A Curse Tab - Bring Me the Horizon






	Artist - Bring Me The Horizon
Song - Blessed With a Curse
Album - There is a Hell Believe Me I've Seen It, There is a Heaven Let's Keep it a Secret
Profile - horizonaflame
Tabber - Nick Orvik
NOTE: this does not include the solo or guitar two, and this is not my first tab, but it 
is my first submitted tab, so any mistakes, just send me a message, GO BMTH!!!!!!!!!
ps. can also be tabbed in Drop A# but i did it in drop C
Bass intro
Verse: Come in at 00:31 - 1:31
D|----------------|---------------------------|
A|----------------|---------------------------|
F|-5~---4~---2~---|---5~---7~---12~-----------|   Whole thing 3X
C|-7~---5~---3~---|---7~---9~---14~---10~-----|
G|----------------|---------------------------|
C|----------------|---------------------------|
D|----------------|-----------------------------|
A|----------------|-----------------------------|
F|-5~---4~---2~---|---5~---7~-------------------|
C|-7~---5~---3~---|---7~---9~---3-3-3-3-3-3-3-3-|
G|----------------|-------------3-3-3-3-3-3-3-3-|
C|----------------|-------------3-3-3-3-3-3-3-3-|
PM * * * * * * * *
Chorus 1:31 - 1:45
D|----------------------------------------------|
A|----------------------------------------------|
F|-------9999-------9999-------9999101010109999-|   WT 2X
C|-7~-77-xxxx-5~-55-xxxx-3~-33------------------|
G|-7~-77-7777-5~-55-7777-3~-33-7777-8-8-8-87777-|
C|-7~-77------5~-55------3~-33------------------|
Chorus Outro 1:45 - 1:52
D|----------------|
A|----------------|
F|-5~---4~---2~---|
C|-7~---5~---3~---|
G|----------------|
C|----------------|
Verse 2 1:52 - 2:22
D|----------------|-------------------------|
A|----------------|-------------------------|
F|-5~---4~---2~---|---5~---7~---12~---------|  WT 2X
C|-7~---5~---3~---|---7~---9~---14~---10~---|
G|----------------|-------------------------|
C|----------------|-------------------------|
Bridge 2:22 - 2:52
D|------------------|-------------|
A|------------------|-------------|
F|------------------|-------------|   2X
C|-3-----5----7-----|-5-----3-----|
G|-3-X12-5-X4-7-X16-|-5-X16-3-X16-|
C|-3-----5----7-----|-5-----3-----|
Chorus again 2:52 - 3:21
Same as other Chorus but 4X instead of 2X
Bridge 2 pt. 1 (during solo) 3:21 - 3:36
D|----------------------|
A|----------------------|
F|----------------------|
C|-7----5----3-----5----| 2X
G|-7-X8-5-X8-3-X12-5-X4-|
C|-7----5----3-----5----|
Bridge 2 pt. 2 (during solo) 3:36 - 3:52
D|-------------------------------------------|
A|-------------------------------------------|
F|------9999------9999------9999101010109999-|
C|-7777-xxxx-5555-xxxx-3333-xxxx-x-x-x-xxxxx-| 2X
G|-7777-7777-5555-7777-3333-7777-8-8-8-87777-|
C|-7777------5555------3333------------------|
Outro 3:52 -
Power chords in this progression (needs delay!!!)
D|-x-|-x-|-x-|-x-|
A|-x-|-x-|-x-|-x-|
F|-x-|-x-|-x-|-x-|
C|-7-|-5-|-3-|-3-|
G|-7-|-5-|-3-|-3-|
C|-7-|-5-|-3-|-3-|
there it is, hope you like it im sure its all 100% except the outro changes chord 
progressions (you figure it out cos i got lazy lol) and if you like music, BUY IT! dont STEAL

ĂŽnscrie-te la newsletter


Join the ranks ! LIKE us on Facebook