For Stevie Wonders Eyes Only (ver2) Bass Tab - Bring Me the Horizon






I have tabbed this by ear and guitar pro.
You have to work out the timing in some parts.
Message me if you find any mistakes.


The tuning is drop B


Intro:4/4

E |--------------------|
B |-------------777555-|
F#|--------------------|
B |-777888444555-------|

E |---------------------------|--------------------------------|
B |---------------------------|--------------------------------|
F#|----8--7------8--7---------|-----8--7-----------------------|    X2
B |-0-0--0--0-0-0--0--0-0-0-0-|-0-0---0--0-0-0-0-0-0-0-0-0-0-0-|

E |----------------------------------|--------------------|
B |----------------------------------|-------------777555-|
F#|-5------4-5---8---7-------5-------|--------------------|    X2
B |--0-0-0-----0---0---0-0-0---0-0-0-|-777888444555-------|


Drum Fill

verse 1

E |-------------------------------------|---------------------------|
B |-------------------7-----8-----------|-5-7-----------------------|
F#|-10-7----------------8-----10---4-5--|---------------------------|    X4
B |------0-0--0-0-0-0-----0------0------|-----0-0--0000--0000--0000-|


Breakdown

Verse 2: 3/4

E |---------------------|---------------------|
B |-------------7-8-7---|---------------7---6-|
F#|-------8-----------8-|-------4-5-4---------|
B |-0-0-0---0-0---------|-0-0-0-------0---0---|

E |---------------------|-------------------------|
B |-------------7-8-7---|-------------------------|
F#|-------8-----------8-|-------4-5-4-------------|    X4
B |-0-0-0---0-0---------|-0-0-0-------0-0-0-0-0-0-|


Beatdown 1

E |------|------|------|-----------|
B |------|------|------|-----------|
F#|------|------|------|-----------|
B |-0----|-0--0-|-0----|-0--0--000-|


Beatdown 2

E |------|------|------|------------|
B |------|------|------|------------|
F#|------|------|------|------------|   X3
B |-0----|-0-00-|-0----|-0--0--0000-|


Interlude

E |-------------------------|---------------------------------|
B |-------------------------|---------------------------------|
F#|-------8-8-8-7-----------|12-12-12-10-10-10-8-8-8-10-10-10-|   X2
B |-0-0-0-----------0-0-0-0-|---------------------------------|

E |--------------|--------------|--------------|-----------------------|
B |--------------|--------------|--------------|-----------------------|
F#|--------------|--------------|--------------|-----------------------|
B |-888888888888-|-888888888888-|-777777777777-|-3-2-0-0--2-3-3-2--0-3-|

E |-------------------------|---------------------------------|
B |-------------------------|---------------------------------|
F#|-------8-8-8-7-----------|12-12-12-10-10-10-8-8-8-10-10-10-|   X2
B |-0-0-0-----------0-0-0-0-|---------------------------------|

E |----------------|
B |----------------|
F#|----------------|    X4
B |-0000-0000-0000-|

Drum Fill


Verse 1: 4/4

E |-------------------------------------|---------------------------|
B |-------------------7-----8-----------|-5-7-----------------------|
F#|-10-7----------------8-----10---4-5--|---------------------------|    X4
B |------0-0--0-0-0-0-----0------0------|-----0-0--0000--0000--0000-|


Verse/Breakdown

E |----------|        |----|
B |----------|        |----| 
F#|----------|    X8  |----|
B |-000--000-|        |-0--|

Drum Fill

Tremelo

E |--------------|--------------|-----------------|-----------------|
B |--------------|--------------|-----------------|-----------------|
F#|-8-5--8-5-8-5-|-7-4--7-4-7-4-|-----------------|-----------------|    X4
B |--------------|--------------|-8-8-8-8-8-8-8-8-|-5-5-5-5-7-7-7-7-|


Bridge

E |-----------|-------------|-----------|-----------------|
B |-----------|-------------|-----------|-----------------|
F#|---------5-|---------5-1-|---------1-|-----------------|    X2
B |-0-0-0-0---|-0-0-0-0-----|-0-0-0-0---|-1-4-4-4-0-1-1-1-|

E |-------------------|
B |-------------------|
F#|-------------------|
B |-0---0---0---0---0-|


Verse 2: 3/3

E |---------------------|---------------------|
B |-------------7-8-7---|---------------7---6-|
F#|-------8-----------8-|-------4-5-4---------|
B |-0-0-0---0-0---------|-0-0-0-------0---0---|

E |---------------------|-------------------------|
B |-------------7-8-7---|-------------------------|
F#|-------8-----------8-|-------4-5-4-------------|
B |-0-0-0---0-0---------|-0-0-0-------0-0-0-0-0-0-|


End

E |------|------|------|------------|
B |------|------|------|------------|
F#|------|------|------|------------|   X4
B |-0----|-0-00-|-0----|-0--0--0000-|



Thats it
Have fun learning/playing it.


ĂŽnscrie-te la newsletter


Like us on Facebook