For Stevie Wonders Eyes Only Bass Tab - Bring Me the Horizon






Go easy on me. My first tab on here....

Intro 0:00 - 0:21

D ----------------------------------------------------------------------|
A -------------9-7------------------------------------------------------|
E ------------------69685--69685---69685----69685--69685---69685--------|
B -7-8-4-5-7-8----------------------------------------------------------|

D ------------------------------------|
A -------------------------------9-7--|  this second part is played twice
E -6---5-6-9-8---6--------------------|
B ---0---------00---7-8-4-5-7-8-------|

Verse A 0:23 - 0:43 (the hardest part)

D ------------------------------|
A -9--------9---10-----9--------|  I'm not sure if the bass plays with the guitar hammer -ons
E --86-------86---98-56---------|  following this, but this part is played twice
B -----00-00-------------00-00--|
Slide down the top string at 0:45

 Breakdown A 0:46 - 1:10

D ----------------------------------------| In sets of nine repeated, pausing for the guitar
A ----------------------------------------| squeals
E ----------------------------------------|
B -0-0-0-0-0-0-0-0-0---0-0-0-0-0-0-0-0-0--|

Breakdown B 1:11 - 1:37

D -------------------------------------------------|
A -------------------------------------------------|
E -------------------------------------------------|
B -000---0---000------000---0-0-0-0-0-0-0-0-0------|

Bridge A 1:38 - 2:03

D -----------------------------------------------------------------| Not sure if the bass
A -----------------------------------------------------------------| speedpicks this part
E -------12-10-------15-13-12-13-------12-10--------15-13-12-13----|
B -0-0-0-------0-0-0-------------0-0-0--------0-0-0----------------|

D ------------------------------------------------------------------------------|
A ------------------------------------------------------------------------------|
E ------------------------------------------------------------------------------|
B -888888888888888888888888888888888888888888866666666666666666666666666-

D ------------------------------------------------------|
A ------------------------------------------------------|  On the last repetition of this
E ------------------------------------------------------|  bridge the bass slows down
B -8-8-8-8-8-888--8-8-8-8-8-8-6-6-6--6-6-6-6-6-6-6-6-6--|

Repeat Verse A 2:04 - 2:23

Breakdown C 2:24 - 2:42

D ---------------------|  Okay, so the lead guitar continues the verse, but the bass and rhythm
A ---------------------|  guitar just do the open notes between the fast bits
E ---------------------|
B -00-00--------00-00--|

Hit the top string at 2:43

Bridge B 2:47 - 3:20

D ---------------------------------------------------------------------------------|
A ---------------------------------------------------------------------------------|
E -16-13--16-13-16-13-15-12--15-12-15-12-------------------------------------------|
B -----------------------------------------88888888888855555555555777777777777-----|

D -----------------------------------------------------------------------------------|
A -----------------------------------------------------------------------------------|
E -16-13--16-13-16-13-15-12--15-12-15-12---------------------------------------------|
B -----------------------------------------8------------5-----------7----------------|

D -----------------------------------------------------------------------------------|
A -----------------------------------------------------------------------------------|
E -16-13--16-13-16-13-15-12--15-12-15-12--------------------------4------------------|
B -----------------------------------------8------------5----------------------------|

Breakdown D 3:21 - 3:40

D --------------------------------------------------------------|
A --------------------------------------------------------------| Repeat twice
E --------------------------------------------10-10-10--7-7-7---|
B -0-0-0-0-0----0-0-0-0-0----0-0-0-0-0----0---------------------|

This is followed by a really easy bridge, a couple hits on the open top string, then 
with a repeat of Breakdown B.

Peace.

ĂŽnscrie-te la newsletter


Join the ranks ! LIKE us on Facebook