Home Sweet Hole Tab - Bring Me the Horizon






-------------------------------------------------------------------------------
Home Sweet Hole - BMTH
-------------------------------------------------------------------------------
Tabbed by: LostInEchoesFin
Email: r_we_@live.com
Hey guys, first ever tab here :)
my fav song off their new album and no-one's put a tab up so I thought I'd give it a wee 
why not? Let me know what you think :)
I'll get the rest of the song up at some point :)
btw 12121212 etc means 12 - 12 - 12 - 12 not 1-2-1-2-1-2 k? :P the 11 in the last line 
(11) not (1)(1)
Tuning:Drop A#
C |-----------------------------|-----------------------------------------------|
G |-----------------------------|-----------------------------------------------|
D#|-----------------------------|-----------------------------------------------|
A#|-----------------------------|-----------------------------------------------|
F |-----------------------------|-----------------------------------------------|
A#|10-12-12-10-1212121212(lots)-|10-12-12-10-12121212(lots)-11111111(lots)10-10-|
C |---------------------------------------------------------------------------|
G |---------------------------------------------------------------------------|
D#|---------------------------------------------------------------------------|
A#|10-12-12-10-12-12-12--10-12-12-10-12-12-12--5-5-5-55-55-55-55--------------|
F |10-12-12-10-12-12-12--10-12-12-10-12-12-12--5-5-5-55-55-55-55--------------|
A#|10-12-12-10-12-12-12--10-12-12-10-12-12-12--5-5-5-55-55-55-55--------------|
C |----------------------------------|------------------------------------------|
G |----------------------------------|------------------------------------------|
D#|----------------------------------|------------------------------------------|
A#|----------------------5~-----6----|10-12-12-10-12-12-12--10-12-12-10-12-12-12|
F |-------1010101010-----5~---8------|10-12-12-10-12-12-12--10-12-12-10-12-12-12|
A#|7--8888----------8887-5~----6-9~--|10-12-12-10-12-12-12--10-12-12-10-12-12-12|
C |---------------------------------------------------------------------------------------|
G |---------------------------------------------------------------------------------------|
D#|---------------------------------------------------------------------------------------|
A#|-------------------------------------------5-55-5-5-5-5-5-5--11-1111-11-11-11-11-11-11-|
F |-6-6-6-66-5-5555555---------1010101010-----5-55-5-5-5-5-5-5--11-1111-11-11-11-11-11-11-|
A#|-9-9-9-99-9-9999999--7--8888----------8887-5-55-5-5-5-5-5-5--11-1111-11-11-11-11-11-11-|
************************************
| /   slide up
| \   slide down
| h   hammer-on
| p   pull-off
| ~   vibrato
| +   harmonic
| x   Mute note
| b   Bend
| pb  Pre-bend
| br  Bend release
| pbr Pre-bend release
| brb Bend release bend
************************************

ĂŽnscrie-te la newsletter


Join the ranks ! LIKE us on Facebook