I Used To Make Out With Medusa Intro Tab - Bring Me the Horizon






Bring Me The Horizon
(I used to make out with)Medusa

------------------------------------------------|
------------------------------------------------|
------------------------------------------------|
--------7---------------------------------------|
000-000---10-8-7----4h5----8p7------------------|
000-000----------00-----00----------------------|
... ...          ..     ..

------------------------------------------------|
------------------------------------------------|
------------------------------------------------|
--------7------------6-9----7-10----------------|
000-000---10-8-7--5-8----5-8--------------------|
000-000-----------------------------------------|
... ...           . .    . .

------------------------------------------------|
------------------------------------------------|
------------------------------------------------|
--------7---------------------------------------|
000-000---10-8-7----4h5----8p7------------------|
000-000----------00-----00----------------------|
... ...          ..     ..

------------------------------------------------|
------------------------------------------------|
---------------------6-9-----7-10---------------|
--------7---------5-8----5-8--------------------|
000-000---10-8-7--------------------------------|
000-000-----------------------------------------|
... ...           . .    . .

ĂŽnscrie-te la newsletter


Like us on Facebook