I Used To Make Out With Medusa Solo Tab - Bring Me the Horizon






--------------------------------------------------------------------
|    Bring Me The Horizon - (I Used To Make Out With) Medusa       |
--------------------------------------------------------------------
                                                  ska-me@hotmail.com

THIS SOLO IS TRANSCRIBED FOR STANDARD TUNING. BRING ME THE HORIZON PLAY THIS SONG IN 
B TUNING. BUT SINCE IM RARELY TUNED THAT LOW, I THOUGHT ID TRANSCRIBE THIS SOLO FOR 
TO PLAY IT WHENEVER, WITHOUT HAVING TO TUNE DOWN.


E||-----------9b--------|--9p-7-----------10~---9---|
B||---------------------|-------10------------------|
G||---------------------|---------------------------|
D||---------------------|---------------------------|
A||---------------------|---------------------------|
E||---------------------|---------------------------|

--7--12~---9-------10-9-7-9-7-6-|--7-6---6-------------------------|
---------------10---------------|------8---8-7-8-7-5-7-5---5-------|
--------------------------------|------------------------7---7-6-7-|
--------------------------------|----------------------------------|
--------------------------------|----------------------------------|
--------------------------------|----------------------------------|

----------------------------------|--------------------------14p-10-7-14p-|
----------------------------------|---------------------------------------|
--6-4-6-4-3-4-3---3---------------|---------------------------------------|
----------------5---5-4-5-4-2-4-2-|----2----------------------------------|
----------------------------------|--5---5-4-5-4-2-4-2-1------------------|
----------------------------------|---------------------------------------|


--10-7-14p-10-7-14p-10-7-15p-10-7-15p-10-7-14p-10-|
--------------------------------------------------|
--------------------------------------------------|
--------------------------------------------------|
--------------------------------------------------|
--------------------------------------------------|


--7-14p-10-7-14p-9-6-14p-9-6-14p-9-6-14p-9-6-|
---------------------------------------------|
---------------------------------------------|
---------------------------------------------|
---------------------------------------------|
---------------------------------------------|


--15p-9-6-15p-9-6-14p-9-6-14p-9-6-14p-10-7-14p-|
-----------------------------------------------|
-----------------------------------------------|
-----------------------------------------------|
-----------------------------------------------|
-----------------------------------------------|


--10-7-14p-10-7-14p-10-7-15p-10-7-15p-10-7-14p-10-|
--------------------------------------------------|
--------------------------------------------------|
--------------------------------------------------|
--------------------------------------------------|
--------------------------------------------------|


--7-14p-10-7-14p-9-6-14p-9-6-14p-9-6-14p-9-6-|
---------------------------------------------|
---------------------------------------------|
---------------------------------------------|
---------------------------------------------|
---------------------------------------------|

--15p-9-6-15p-9-6-14p-9-6-14p-9-6-----|------------------------------------|
--------------------------------------|--12------12-12-12-12-14---15---17--|
--------------------------------------|------------------------------------|
--------------------------------------|------------------------------------|
--------------------------------------|------------------------------------|
--------------------------------------|------------------------------------|


---------------------------------|----------------------------------|
--15---14---14h-15p-14-----------|--19---17----15----17----15--14---|
-----------------------15--------|----------------------------------|
---------------------------------|----------------------------------|
---------------------------------|----------------------------------|
---------------------------------|----------------------------------|

-----------14----------------15----------------17-|
--12-14-15----15-14-12-14-15----15-14-12-14-15----|
--------------------------------------------------|
--------------------------------------------------|
--------------------------------------------------|
--------------------------------------------------|


--15-14-15-14----14----------------14-------------|
--------------17----17-15-12-14-15----15-14-12-14-|
--------------------------------------------------|
--------------------------------------------------|
--------------------------------------------------|
--------------------------------------------------|

-----15----------------17-15-14-15-14----14-------|---------------------||
--15----15-14-12-14-15----------------17----17-15-|---------------------||
--------------------------------------------------|--15b----------------||
--------------------------------------------------|---------------------||
--------------------------------------------------|---------------------||
--------------------------------------------------|---------------------||

ĂŽnscrie-te la newsletter


Join the ranks ! LIKE us on Facebook