It Never Ends Tab - Bring Me the Horizon






It Never Ends tab by Bring Me The Horizon, www.Ultimate-Guitar.Com
UG app View It Never Ends tab on your iPhone or iPod Touch
  Listen to It Never Ends
Add to favourites
  Tuning (this tab): Drop C [ C G C F A D ]
tf_artist = "Bring Me The Horizon"; tf_song = "It Never Ends"; Learn to play "It Never Ends" with online video lessons
			 This is Bring Me The Horizon's new song off of their upcoming album, "There is a Hell,
			Me I've Seen it.
			There is a Heaven, Let's Keep it a Secret." The Song is tuned to  drop C (C G C F A D). Enjoy
			P.S. Check out my band's new demo on Youtube. Search As it all comes crashing down by
			cheshire massacre.
			1 e + a 2 e + a 3 e + a 4 e + a   1 e + a 2 e + a 3 e + a 4 e + a
			|---------------------------------|---------------------------------|
			|---------------------------------|-6-6-6-6-6-6-6-6-6-6-6-6-6-6-6-6-|
			|---------------------------------|-5-5-5-5-5-5-5-5-5-5-5-5-5-5-5-5-|
			|---------------------------------|-3-3-3-3-3-3-3-3-3-3-3-3-3-3-3-3-|
			|-3-3-3-3-3-3-3-3-3-3-3-3-3-3-3-3-|---------------------------------|
			|---------------------------------|---------------------------------|
			1 e + a 2 e + a 3 e + a 4 e + a   1 e + a 2 e + a 3 e + a 4 e + a
			|---------------------------------|---------------------------------|
			|-----6-6-6-6-6-6-5-5-5-5-5-5-6-6-|-3-3-3-3-----3-3-3-3-3-3-5-5-5-5-|
			|-----5-5-5-5-5-5-5-5-5-5-5-5-5-5-|-3-3-3-3-----3-3-3-3-3-3-3-3-3-3-|
			|-----3-3-3-3-3-3-3-3-3-3-3-3-3-3-|-3-3-3-3-----3-3-3-3-3-3-3-3-3-3-|
			|---------------------------------|---------------------------------|
			|---------------------------------|---------------------------------|
			1 e + a 2 e + a 3 e + a 4 e + a   1 e + a 2 e + a 3 e + a 4 e + a
			|---------------------------------|---------------------------------|
			|-----3-3-3-3-3-3-5---5---5---5---|-6-6-6-6-6-6-6-6-6-6-6-6-6-6-6-6-|
			|-----3-3-3-3-3-3-3---3---3---3---|-5-5-5-5-5-5-5-5-5-5-5-5-5-5-5-5-|
			|-----3-3-3-3-3-3-3---3---3---3---|-3-3-3-3-3-3-3-3-3-3-3-3-3-3-3-3-|
			|---------------------------------|---------------------------------|
			|---------------------------------|---------------------------------|
			1 e + a 2 e + a |------3-------------------------------------------|   1 e + a 2 e + a 
			e + a 4 e + a
			|---------------------------------|----------------------------------|
			|-----6-6-6-6-6-6-5----5----6-----|-3-3-3-3-----3-3-3-3-3-3-5-5-5-5--|
			|-----5-5-5-5-5-5-5----5----5-----|-3-3-3-3-----3-3-3-3-3-3-3-3-3-3--|
			|-----3-3-3-3-3-3-3----3----3-----|-3-3-3-3-----3-3-3-3-3-3-3-3-3-3--|
			|---------------------------------|----------------------------------|
			|---------------------------------|----------------------------------|
			1 e + a 2 e + a 3 e + a 4 e + a
			|---------------------------------|
			|-----3-3-3-3-3-3-5---5---5---5---|
			|-----3-3-3-3-3-3-3---3---3---3---|
			|-----3-3-3-3-3-3-3---3---3---3---|
			|---------------------------------|
			|---------------------------------|
			Guitar 1
			/ 1 e + a 2 e + a 3 e + a 4 e + a   1 e + a 2 e + a 3 e + a 4 e + a
			|---------------------------------|---------------------------------|
			|---------------------------------|---------------------------------|
			|---------------------------------|---------------------------------|
			|---------------------------------|---------------------------------|
			|-5-5-5-5-5-5-5-5-5-5-5-5-5-5-5-5-|-3-5-5-5-5-5-5-5-8-8-8-8-8-8-8-8-|
			|---------------------------------|---------------------------------|
			|
			|  Guitar 2
			| 1 e + a 2 e + a 3 e + a 4 e + a   1 e + a 2 e + a 3 e + a 4 e + a
			|---------------------------------|---------------------------------|
			|---------------------------------|---------------------------------|
			|---------------------------------|---------------------------------|
			|---------------------------------|---------------------------------|
			|-5-5-5-5-5-5-5-5-5-5-5-5-5-5-5-5-|-3-5-5-5-5-5-5-5-3-3-3-3-3-3-3-3-|
			|---------------------------------|---------------------------------|
			\
			Guitar 1
			/ 1 e + a 2 e + a 3 e + a 4 e + a   1 e + a 2 e + a 3 e + a 4 e + a
			|---------------------------------|---------------------------------|
			|---------------------------------|---------------------------------|
			|---------------------------------|---------------------------------|
			|---------------------------------|-----------------5---5---5---5---|
			|-5-5-5-5-5-5-5-5-5-5-5-5-5-5-5-5-|-3-5-5-5-5-5-5-5-----------------|
			|---------------------------------|---------------------------------|
			|
			|  Guitar 2
			| 1 e + a 2 e + a 3 e + a 4 e + a   1 e + a 2 e + a 3 e + a 4 e + a
			|---------------------------------|---------------------------------|
			|---------------------------------|---------------------------------|
			|---------------------------------|---------------------------------|
			|---------------------------------|---------------------------------|
			|-1-1-1-1-1-1-1-1-1-1-1-1-1-1-1-1-|-0-1-1-1-1-1-1-1-3---3---3---3---|
			|---------------------------------|---------------------------------|
			\
			1 e + a 2 e + a 3 e + a   1 e + a 2 e + a 3 e + a 4 e + a 5 e + a
			|-------------------------|-----------------------------------------|
			|-----------------6-6-6-6-|-----------------5-5-5-5-5-5-5-5-5-5-5-5-|
			|-----------------5-5-5-5-|-----------------5-5-5-5-5-5-5-5-5-5-5-5-|
			|-------------------------|-----------------------------------------|
			|-------------------------|-----------------------------------------|
			|-000-0-000-0-000---------|-000---000---000-------------------------|
			1 e + a 2 e + a 3 e + a 4 e + a   1 e + a 2 e + a 3 e + a 4 e + a
			|---------------------------------|---------------------------------|
			|---------------------------------|---------------------------------|
			|---------------------------------|---------------------------------|
			|---------------------------------|-----------------------------3---|
			|-1-1-1-1-1-1-1-1-1-1-1-1-1-1-1-1-|-1-1-1-1-1-1-1-1-1---7---7-----7-|
			|---------------------------------|---------------------------------|
			It started off with a one night stand...
			1 e + a 2 e + a 3 e + a 4 e + a   1 e + a 2 e + a 3 e + a 4 e + a
			|---------------------------------|---------------------------------|
			|---------------------------------|---------------------------------|
			|---------------------------------|---------------------------------|
			|---------------------------------|---------------------------------|
			|---------------------------------|---------------------------------|
			|---------------------------------|---------------------------------|
			1 e + a 2 e + a 3 e + a 4 e + a   1 e + a 2 e + a 3 e + a 4 e + a
			|---------------------------------|---------------------------------|
			|---------------------------------|---------------------------------|
			|---------------------------------|---------------------------------|
			|---------------------------------|---------------------------------|
			|---------------------------------|---------------------------------|
			|---------------------------------|---------------------------------|
			1 e + a 2 e + a 3 e + a 4 e + a   1 e + a 2 e + a 3 e + a 4 e + a
			|---------------------------------|---------------------------------|
			|---------------------------------|---------------------------------|
			|---------------------------------|---------------------------------|
			|---------------------------------|---------------------------------|
			|---------------------------------|---------------------------------|
			|---------------------------------|---------------------------------|
			1 e + a 2 e + a 3 e + a 4 e + a   1 e + a 2 e + a 3 e + a 4 e + a
			|---------------------------------|---------------------------------|
			|---------------------------------|---------------------------------|
			|---------------------------------|-5-5-5-5-5-5-5-5-5-5-5-5-5-5-5-5-|
			|---------------------------------|-5-5-5-5-5-5-5-5-5-5-5-5-5-5-5-5-|
			|---------------------------------|-3-3-3-3-3-3-3-3-3-3-3-3-3-3-3-3-|
			|---------------------------------|---------------------------------|
			Take my hand...
			1 e + a 2 e + a 3 e + a 4 e + a   1 e + a 2 e + a 3 e + a 4 e + a
			|---------------------------------|---------------------------------|
			|---------------------------------|---------------------------------|
			|---------------------------------|---------------------------------|
			|---------------------------------|---------------------------------|
			|---------------------------------|---------------------------------|
			|---------------------------------|---------------------------------|
			1 e + a 2 e + a 3 e + a 4 e + a   1 e + a 2 e + a 3 e + a 4 e + a
			|---------------------------------|---------------------------------|
			|---------------------------------|---------------------------------|
			|---------------------------------|---------------------------------|
			|---------------------------------|---------------------------------|
			|---------------------------------|---------------------------------|
			|---------------------------------|---------------------------------|
			1 e + a 2 e + a 3 e + a 4 e + a   1 e + a 2 e + a 3 e + a 4 e + a
			|---------------------------------|---------------------------------|
			|---------------------------------|---------------------------------|
			|---------------------------------|---------------------------------|
			|---------------------------------|---------------------------------|
			|---------------------------------|---------------------------------|
			|---------------------------------|---------------------------------|
			1 e + a 2 e + a 3 e + a 4 e + a   1 e + a 2 e + a 3 e + a 4 e + a
			|---------------------------------|---------------------------------|
			|---------------------------------|---------------------------------|
			|---------------------------------|---------------------------------|
			|---------------------------------|---------------------------------|
			|---------------------------------|---------------------------------|
			|---------------------------------|---------------------------------|
			One more nail in the coffin...
			1 e + a 2 e + a 3 e + a 4 e + a   1 e + a 2 e + a 3 e + a 4 e + a
			|---------------------------------|---------------------------------|
			|---------------------------------|---------------------------------|
			|---------------------------------|---------------------------------|
			|-5---5---5---5---5---5---5---5---|-8---8---8---8---8---8---8---8---|
			|-5---5---5---5---5---5---5---5---|-8---8---8---8---8---8---8---8---|
			|-5---5---5---5---5---5---5---5---|-8---8---8---8---8---8---8---8---|
			1 e + a 2 e + a 3 e + a 4 e + a   1 e + a 2 e + a 3 e + a 4 e + a
			|---------------------------------|---------------------------------|
			|---------------------------------|---------------------------------|
			|---------------------------------|---------------------------------|
			|-----3-----3-3-3-3-3-3-3-3-3-3-3-|-----2-2-2-2-2-2-2-2-2-2-2-2-2-2-|
			|-5-5---5---5-5-5-5-5-5-5-5-5-5-5-|-3-5-3-3-3-3-3-3-3-3-3-3-3-3-3-3-|
			|---------------------------------|---------------------------------|
			1 e + a 2 e + a 3 e + a 4 e + a   1 e + a 2 e + a 3 e + a 4 e + a
			|---------------------------------|---------------------------------|
			|---------------------------------|---------------------------------|
			|---------------------------------|---------------------------------|
			|-5---5---5---5---5---5---5---5---|-8---8---8---8-------------------|
			|-5---5---5---5---5---5---5---5---|-8---8---8---8-------------------|
			|-5---5---5---5---5---5---5---5---|-8---8---8---8---0---0---0---0---|
			I've said it once...
			1 e + a 2 e + a 3 e + a 4 e + a   1 e + a 2 e + a 3 e + a 4 e + a
			|---------------------------------|---------------------------------|
			|-6-6-6-6-6-6-6-6-6-6-6-6-6-6-6-6-|-6-6-6-6-6-6-6-6-5-5-5-5-5-5-5-5-|
			|-5-5-5-5-5-5-5-5-5-5-5-5-5-5-5-5-|-5-5-5-5-5-5-5-5-5-5-5-5-5-5-5-5-|
			|-7-7-7-7-7-7-7-7-7-7-7-7-7-7-7-7-|-7-7-7-7-7-7-7-7-3-3-3-3-3-3-3-3-|
			|-5-5-5-5-5-5-5-5-5-5-5-5-5-5-5-5-|-8-8-8-8-8-8-8-8-3-3-3-3-3-3-3-3-|
			|---------------------------------|---------------------------------|
			1 e + a 2 e + a 3 e + a 4 e + a   1 e + a 2 e + a 3 e + a 4 e + a
			|---------------------------------|---------------------------------|
			|---------------------------------|---------------------------------|
			|-3---3---3---3---3---3---3---3---|-3---3---3---3---5---------------|
			|-3---3---3---3---3---3---3---3---|-3---3---3---3---5-------2---3p2-|
			|-1---1---1---1---1---1---1---1---|-1---1---1---1---3-----3---------|
			|---------------------------------|---------------------------------|
			1 e + a 2 e + a 3 e + a 4 e + a   1 e + a 2 e + a 3 e + a 4 e + a
			|---------------------------------|---------------------------------|
			|-6-6-6-6-6-6-6-6-6-6-6-6-6-6-6-6-|-6-6-6-6-6-6-6-6-5-5-5-5-5-5-5-5-|
			|-5-5-5-5-5-5-5-5-5-5-5-5-5-5-5-5-|-5-5-5-5-5-5-5-5-5-5-5-5-5-5-5-5-|
			|-7-7-7-7-7-7-7-7-7-7-7-7-7-7-7-7-|-7-7-7-7-7-7-7-7-3-3-3-3-3-3-3-3-|
			|-5-5-5-5-5-5-5-5-5-5-5-5-5-5-5-5-|-8-8-8-8-8-8-8-8-3-3-3-3-3-3-3-3-|
			|---------------------------------|---------------------------------|
			1 e + a 2 e + a 3 e + a 4 e + a   1 e + a 2 e + a 3 e + a 4 e + a
			|---------------------------------|---------------------------------|
			|---------------------------------|---------------------------------|
			|-3---3---3---3---3---3---3---3---|-3---3---3---3---5---------------|
			|-3---3---3---3---3---3---3---3---|-3---3---3---3---5-------2---3p2-|
			|-1---1---1---1---1---1---1---1---|-1---1---1---1---3-----3---------|
			|---------------------------------|---------------------------------|
			1 e + a 2 e + a 3 e + a 4 e + a   1 e + a 2 e + a 3 e + a 4 e + a
			|---------------------------------|---------------------------------|
			|---------------------------------|---------------------------------|
			|---------------------------------|-----5---------------5-----------|
			|-8~------------------------------|-5-------7-------7-------7-------|
			|-8~------------------------------|-5---------------7---------------|
			|-8~------------------------------|-5---------------7---------------|
			1 e + a 2 e + a 3 e + a 4 e + a   1 e + a 2 e + a 3 e + a 4 e + a
			|---------------------------------|---------------------------------|
			|---------------------------------|---------------------------------|
			|---------------------------------|---------------------------------|
			|-8~------------------------------|-5~------------------------------|
			|-8~------------------------------|-5~------------------------------|
			|-8~------------------------------|-5~------------------------------|
			1 e + a 2 e + a 3 e + a 4 e + a   1 e + a 2 e + a 3 e + a 4 e + a
			|---------------------------------|---------------------------------|
			|-----------------6-6-6-6-6-6-6-6-|-6-6-6-6-6-6-6-6-----------------|
			|-----------------5-5-5-5-5-5-5-5-|-5-5-5-5-5-5-5-5-----------------|
			|---------------------------------|---------------------------------|
			|---------------------------------|---------------------------------|
			|-000-0-000-0-000-----------------|-----------------000-000-000-000-|
			This is a war...
			1 e + a 2 e + a 3 e + a 4 e + a   1 e + a 2 e + a 3 e + a 4 e + a
			|---------------------------------|---------------------------------|
			|---------------------------------|---------------------------------|
			|---------------------------------|---------------------------------|
			|---------------------------------|-----------------3-3-3-3-2-2-2-2-|
			|---------------------------------|-----------------5-5-5-5-3-3-3-3-|
			|-000-000---0---0---0---0-000-000-|-000-000---0-0-0-----------------|
			1 e + a 2 e + a 3 e + a 4 e + a
			|---------------------------------|
			|---------------------------------|
			|---------------------------------|
			|-0-0-----0-----------------------|
			|-0-0-----0-----------------------|
			|-0-0-----0-------0---0-----0-0-0-|
			1 e + a 2 e + a |------3-------------------------------------------|   1 e + a 2 e + a 
			e + a 4 e + a
			|---------------------------------|----------------------------------|
			|-----------------5-----5---------|----------------------------------|
			|-----------------5-----5---------|----------------------------------|
			|---------------------------------|----------------------------------|
			|---------------------------------|----------------------------------|
			|-000-000---0-0-0-----------------|-000-000---0---0---0---0-000-000--|
			1 e + a 2 e + a 3 e + a 4 e + a   1 e + a 2 e + a 3 e + a 4 e + a
			|---------------------------------|---------------------------------|
			|---------------------------------|---------------------------------|
			|---------------------------------|---------------------------------|
			|-----------------3-3-3-3-2-2-2-2-|-0-0-----0-----------------------|
			|-----------------5-5-5-5-3-3-3-3-|-0-0-----0-----------------------|
			|-000-000---0-0-0-----------------|-0-0-----0-------0---0-----0-0-0-|
			This is what you call love...
			1 e + a 2 e + a 3 e + a 4 e + a   1 e + a 2 e + a 3 e + a 4 e + a
			|---------------------------------|---------------------------------|
			|-----------------5-----5-----5---|---------------------------------|
			|-----------------5-----5-----5---|-3~------------------------------|
			|---------------------------------|-3~------------------------------|
			|---------------------------------|-1~------------------------------|
			|-000-000---0-0-0-----------------|---------------------------------|
			1 e + a 2 e + a 3 e + a 4 e + a  |--3--| |--3--| |--3--| |--3-------|
			|---------------------------------|-----------------------------------|
			|---------------------------------|-----------------------------------|
			|---------------------------------|-----------------------------------|
			|---------------------------------|-----------------------------------|
			|---------------------------------|-----------------------------------|
			|-000-000-000-000-000-000-000-000-|-000--0--0-0--0--0-0--0--0-0--0----|
			1 e + a 2 e + a 3 e + a 4 e + a   1 e + a 2 e + a 3 e + a 4 e + a
			|---------------------------------|---------------------------------|
			|---------------------------------|---------------------------------|
			|---------------------------------|---------------------------------|
			|---------------------------------|-3~-------------5~---------------|
			|---------------------------------|-1~-------------3~---------------|
			|-000-000-000-000-000-000-000-000-|---------------------------------|
			Guitar 1
			/ 1 e + a 2 e + a 3 e + a 4 e + a   1 e + a 2 e + a 3 e + a 4 e + a
			|---------------------------------|---------------------------------|
			|---------------------------------|---------------------------------|
			|---------------------------------|---------------------------------|
			|---------------------------------|---------------------------------|
			|-5-5-5-5-5-5-5-5-5-5-5-5-5-5-5-5-|-3-5-5-5-5-5-5-5-8-8-8-8-8-8-8-8-|
			|---------------------------------|---------------------------------|
			|
			|  Guitar 2
			| 1 e + a 2 e + a 3 e + a 4 e + a   1 e + a 2 e + a 3 e + a 4 e + a
			|---------------------------------|---------------------------------|
			|---------------------------------|---------------------------------|
			|---------------------------------|---------------------------------|
			|---------------------------------|---------------------------------|
			|-5-5-5-5-5-5-5-5-5-5-5-5-5-5-5-5-|-3-5-5-5-5-5-5-5-3-3-3-3-3-3-3-3-|
			|---------------------------------|---------------------------------|
			\
			Guitar 1
			/ 1 e + a 2 e + a 3 e + a 4 e + a   1 e + a 2 e + a 3 e + a 4 e + a
			|---------------------------------|---------------------------------|
			|---------------------------------|---------------------------------|
			|---------------------------------|---------------------------------|
			|---------------------------------|-----------------5-5-5-5-5-5-5-5-|
			|-5-5-5-5-5-5-5-5-5-5-5-5-5-5-5-5-|-3-5-5-5-5-5-5-5-----------------|
			|---------------------------------|---------------------------------|
			|
			|  Guitar 2
			| 1 e + a 2 e + a 3 e + a 4 e + a   1 e + a 2 e + a 3 e + a 4 e + a
			|---------------------------------|---------------------------------|
			|---------------------------------|---------------------------------|
			|---------------------------------|---------------------------------|
			|---------------------------------|---------------------------------|
			|-1-1-1-1-1-1-1-1-1-1-1-1-1-1-1-1-|-0-1-1-1-1-1-1-1-3-3-3-3-3-3-3-3-|
			|---------------------------------|---------------------------------|
			\
			Guitar 1
			/ 1 e + a 2 e + a 3 e + a 4 e + a   1 e + a 2 e + a 3 e + a 4 e + a
			|---------------------------------|---------------------------------|
			|---------------------------------|---------------------------------|
			|---------------------------------|---------------------------------|
			|---------------------------------|---------------------------------|
			|-5-5-5-5-5-5-5-5-5-5-5-5-5-5-5-5-|-3-5-5-5-5-5-5-5-8-8-8-8-8-8-8-8-|
			|---------------------------------|---------------------------------|
			|
			|  Guitar 2
			| 1 e + a 2 e + a 3 e + a 4 e + a   1 e + a 2 e + a 3 e + a 4 e + a
			|---------------------------------|---------------------------------|
			|---------------------------------|---------------------------------|
			|---------------------------------|---------------------------------|
			|---------------------------------|---------------------------------|
			|-5-5-5-5-5-5-5-5-5-5-5-5-5-5-5-5-|-3-5-5-5-5-5-5-5-3-3-3-3-3-3-3-3-|
			|---------------------------------|---------------------------------|
			\
			Guitar 1
			/ 1 e + a 2 e + a 3 e + a 4 e + a   1 e + a 2 e + a 3 e + a 4 e + a
			|---------------------------------|---------------------------------|
			|---------------------------------|---------------------------------|
			|---------------------------------|----------------1212121212121212-|
			|---------------------------------|---------------------------------|
			|-5-5-5-5-5-5-5-5-5-5-5-5-5-5-5-5-|-3-5-5-5-5-5-5-5-----------------|
			|---------------------------------|---------------------------------|
			|
			|  Guitar 2
			| 1 e + a 2 e + a 3 e + a 4 e + a   1 e + a 2 e + a 3 e + a 4 e + a
			|---------------------------------|---------------------------------|
			|---------------------------------|---------------------------------|
			|---------------------------------|---------------------------------|
			|---------------------------------|---------------------------------|
			|-1-1-1-1-1-1-1-1-1-1-1-1-1-1-1-1-|-0-1-1-1-1-1-1-1-3-3-3-3-3-3-3-3-|
			|---------------------------------|---------------------------------|
			\
			Guitar 1
			One more nail in the coffin...
			/ 1 e + a 2 e + a 3 e + a 4 e + a    1 e + a 2 e + a 3 e + a 4 e + a
			|-17171717171717171717171717171717-|----------------------------------|
			|----------------------------------|-15151515151515151818181818181818-|
			|----------------------------------|----------------------------------|
			|----------------------------------|----------------------------------|
			|----------------------------------|----------------------------------|
			|----------------------------------|----------------------------------|
			|
			|  Guitar 2
			| 1 e + a 2 e + a 3 e + a 4 e + a   1 e + a 2 e + a 3 e + a 4 e + a
			|---------------------------------|---------------------------------|
			|---------------------------------|---------------------------------|
			|---------------------------------|---------------------------------|
			|-5~------------------------------|-5~--------------8~--------------|
			|-5~------------------------------|-5~--------------8~--------------|
			|-5~------------------------------|-5~--------------8~--------------|
			\
			Guitar 1
			/ 1 e + a 2 e + a 3 e + a 4 e + a    1 e + a 2 e + a 3 e + a 4 e + a
			|----------------------------------|----------------------------------|
			|----------------------------------|----------------------------------|
			|-14141414141414141515151515151515-|-17171717171717171212121212121212-|
			|----------------------------------|----------------------------------|
			|----------------------------------|----------------------------------|
			|----------------------------------|----------------------------------|
			|
			|   Guitar 2
			| 1 e + a 2 e + a 3 e + a 4 e + a   1 e + a 2 e + a 3 e + a 4 e + a
			|---------------------------------|---------------------------------|
			|---------------------------------|---------------------------------|
			|---------------------------------|---------------------------------|
			|-3~------------------------------|-2~------------------------------|
			|-5~------------------------------|-3~------------------------------|
			|---------------------------------|---------------------------------|
			\
			Guitar 1
			/ 1 e + a 2 e + a 3 e + a 4 e + a   1 e + a 2 e + a 3 e + a 4 e + a
			|-17~-----------------------------|---------------------------------|
			|---------------------------------|-15~-----------------------------|
			|---------------------------------|---------------------------------|
			|---------------------------------|---------------------------------|
			|---------------------------------|---------------------------------|
			|---------------------------------|---------------------------------|
			|
			|   Guitar 2
			| 1 e + a 2 e + a 3 e + a 4 e + a   1 e + a 2 e + a 3 e + a 4 e + a
			|---------------------------------|---------------------------------|
			|---------------------------------|---------------------------------|
			|---------------------------------|---------------------------------|
			|-5---5---5---5---5---5---5---5---|-0---0---0---0---0---0---0---0---|
			|-5---5---5---5---5---5---5---5---|-1---1---1---1---1---1---1---1---|
			|-5---5---5---5---5---5---5---5---|---------------------------------|
			\
			1 e + a 2 e + a 3 e + a 4 e + a   1 e + a 2 e + a 3 e + a 4 e + a
			|---------------------------------|---------------------------------|
			|---------------------------------|---------------------------------|
			|---------------------------------|---------------------------------|
			|-----3-----3-3-3-3-3-3-3-3-3-3-3-|-----2-2-2-2-2-2-2---------------|
			|-5-5---5---5-5-5-5-5-5-5-5-5-5-5-|-3-5-3-3-3-3-3-3-3---------------|
			|---------------------------------|---------------------------------|
			I've said it once...
			1 e + a 2 e + a 3 e + a 4 e + a   1 e + a 2 e + a 3 e + a 4 e + a
			|---------------------------------|---------------------------------|
			|-6-6-6-6-6-6-6-6-6-6-6-6-6-6-6-6-|-6-6-6-6-6-6-6-6-5-5-5-5-5-5-5-5-|
			|-5-5-5-5-5-5-5-5-5-5-5-5-5-5-5-5-|-5-5-5-5-5-5-5-5-5-5-5-5-5-5-5-5-|
			|-7-7-7-7-7-7-7-7-7-7-7-7-7-7-7-7-|-7-7-7-7-7-7-7-7-3-3-3-3-3-3-3-3-|
			|-5-5-5-5-5-5-5-5-5-5-5-5-5-5-5-5-|-8-8-8-8-8-8-8-8-3-3-3-3-3-3-3-3-|
			|---------------------------------|---------------------------------|
			1 e + a 2 e + a 3 e + a 4 e + a   1 e + a 2 e + a 3 e + a 4 e + a
			|---------------------------------|---------------------------------|
			|---------------------------------|---------------------------------|
			|-3---3---3---3---3---3---3---3---|-3---3---3---3---5---------------|
			|-3---3---3---3---3---3---3---3---|-3---3---3---3---5-------2---3p2-|
			|-1---1---1---1---1---1---1---1---|-1---1---1---1---3-----3---------|
			|---------------------------------|---------------------------------|
			1 e + a 2 e + a 3 e + a 4 e + a   1 e + a 2 e + a 3 e + a 4 e + a
			|---------------------------------|---------------------------------|
			|-6-6-6-6-6-6-6-6-6-6-6-6-6-6-6-6-|-6-6-6-6-6-6-6-6-5-5-5-5-5-5-5-5-|
			|-5-5-5-5-5-5-5-5-5-5-5-5-5-5-5-5-|-5-5-5-5-5-5-5-5-5-5-5-5-5-5-5-5-|
			|-7-7-7-7-7-7-7-7-7-7-7-7-7-7-7-7-|-7-7-7-7-7-7-7-7-3-3-3-3-3-3-3-3-|
			|-5-5-5-5-5-5-5-5-5-5-5-5-5-5-5-5-|-8-8-8-8-8-8-8-8-3-3-3-3-3-3-3-3-|
			|---------------------------------|---------------------------------|
			1 e + a 2 e + a 3 e + a 4 e + a   1 e + a 2 e + a 3 e + a 4 e + a
			|---------------------------------|---------------------------------|
			|---------------------------------|---------------------------------|
			|---------------------------------|-----5---------------5-----------|
			|-8---8---8---8---8---8---8---8---|---------7---------------7-------|
			|-8---8---8---8---8---8---8---8---|---------------------------------|
			|-8---8---8---8---8---8---8---8---|-5---------------7---------------|
			1 e + a 2 e + a 3 e + a 4 e + a   1 e + a 2 e + a 3 e + a 4 e + a
			|---------------------------------|---------------------------------|
			|---------------------------------|---------------------------------|
			|---------------------------------|-----5---------------------------|
			|-8---8---8---8---8---8---8---8---|---------7-----------------------|
			|-8---8---8---8---8---8---8---8---|---------------------------------|
			|-8---8---8---8---8---8---8---8---|-5---------------7-7-7-7-7-7-----|
			1 e + a 2 e + a 3 e + a 4 e + a   1 e + a 2 e + a 3 e + a 4 e + a
			|---------------------------------|---------------------------------|
			|---------------------------------|---------------------------------|
			|---------------------------------|---------------------------------|
			|---------------------------------|---------------------------------|
			|---------------------------------|---------------------------------|
			|---------------------------------|---------------------------------|
			1 e + a 2 e + a 3 e + a 4 e + a   1 e + a 2 e + a 3 e + a 4 e + a
			|---------------------------------|---------------------------------|
			|---------------------------------|---------------------------------|
			|---------------------------------|---------------------------------|
			|---------------------------------|---------------------------------|
			|---------------------------------|---------------------------------|
			|---------------------------------|---------------------------------|
			1 e + a 2 e + a 3 e + a 4 e + a   1 e + a 2 e + a 3 e + a 4 e + a
			|---------------------------------|---------------------------------|
			|---------------------------------|---------------------------------|
			|---------------------------------|---------------------------------|
			|---------------------------------|---------------------------------|
			|---------------------------------|---------------------------------|
			|---------------------------------|---------------------------------|
			1 e + a 2 e + a 3 e + a 4 e + a   1 e + a 2 e + a 3 e + a 4 e + a
			|---------------------------------|---------------------------------|
			|---------------------------------|---------------------------------|
			|---------------------------------|---------------------------------|
			|---------------------------------|---------------------------------|
			|---------------------------------|---------------------------------|
			|---------------------------------|---------------------------------|
			Every Second...
			1 e + a 2 e + a 3 e + a 4 e + a   1 e + a 2 e + a 3 e + a 4 e + a
			|---------------------------------|---------------------------------|
			|---------------------------------|---------------------------------|
			|-9-9-9-9-----7-7-7-7-7-7-7-7-7-7-|-----7-7-7-7-7-7-9-9-9-9-9-91010-|
			|-8-8-8-8-----8-8-8-8-8-8-8-8-8-8-|-----8-8-8-8-8-8-3-8-8-8-7-7-7-7-|
			|-8-8-8-8-----8-8-8-8-8-8-8-8-8-8-|-----8-8-8-8-8-8-8-8-8-8-8-8-8-8-|
			|---------------------------------|---------------------------------|
			1 e + a 2 e + a 3 e + a 4 e + a   1 e + a 2 e + a 3 e + a 4 e + a
			|---------------------------------|---------------------------------|
			|-6-6-6-6-----5-5-5-5-5-5-6-6-6-6-|-----5-5-5-5-5-5-6-6-6-6-6---6---|
			|-5-5-5-5-----5-5-5-5-5-5-5-5-5-5-|-----5-5-5-5-5-5-5-5-5-5-5---5---|
			|-7-7-7-7-----7-7-7-7-7-7-7-7-7-7-|-----7-7-7-7-7-7-7-7-7-7-7---7---|
			|-5-5-5-5-----5-5-5-5-5-5-5-5-5-5-|-----5-5-5-5-5-5-5-5-5-5-5---5---|
			|---------------------------------|---------------------------------|
			1 e + a 2 e + a 3 e + a 4 e + a   1 e + a 2 e + a 3 e + a 4 e + a
			|---------------------------------|---------------------------------|
			|---------------------------------|---------------------------------|
			|-9-9-9-9-----7-7-7-7-7-7-7-7-7-7-|-----7-7-7-7-7-7-9-9-9-9-9-91010-|
			|-8-8-8-8-----8-8-8-8-8-8-8-8-8-8-|-----8-8-8-8-8-8-3-8-8-8-7-7-7-7-|
			|-8-8-8-8-----8-8-8-8-8-8-8-8-8-8-|-----8-8-8-8-8-8-8-8-8-8-8-8-8-8-|
			|---------------------------------|---------------------------------|
			1 e + a 2 e + a 3 e + a 4 e + a   1 e + a 2 e + a 3 e + a 4 e + a
			|---------------------------------|---------------------------------|
			|-6-6-6-6-----5-5-5-5-5-5-6-6-6-6-|-----5-5-5-5-5-5-6-6-6-6-6---6---|
			|-5-5-5-5-----5-5-5-5-5-5-5-5-5-5-|-----5-5-5-5-5-5-5-5-5-5-5---5---|
			|-7-7-7-7-----7-7-7-7-7-7-7-7-7-7-|-----7-7-7-7-7-7-7-7-7-7-7---7---|
			|-5-5-5-5-----5-5-5-5-5-5-5-5-5-5-|-----5-5-5-5-5-5-5-5-5-5-5---5---|
			|---------------------------------|---------------------------------|
			1 e + a 2 e + a 3 e + a 4 e + a   1 e + a 2 e + a 3 e + a 4 e + a
			|---------------------------------|---------------------------------|
			|---------------------------------|---------------------------------|
			|-9-9-9-9-----7-7-7-7-7-7-7-7-7-7-|-----7-7-7-7-7-7-9-9-9-9-9-91010-|
			|-8-8-8-8-----8-8-8-8-8-8-8-8-8-8-|-----8-8-8-8-8-8-3-8-8-8-7-7-7-7-|
			|-8-8-8-8-----8-8-8-8-8-8-8-8-8-8-|-----8-8-8-8-8-8-8-8-8-8-8-8-8-8-|
			|---------------------------------|---------------------------------|
			1 e + a 2 e + a 3 e + a 4 e + a   1 e + a 2 e + a 3 e + a 4 e + a
			|---------------------------------|---------------------------------|
			|-6-6-6-6-----5-5-5-5-5-5-6-6-6-6-|-----5-5-5-5-5-5-6-6-6-6-6---6---|
			|-5-5-5-5-----5-5-5-5-5-5-5-5-5-5-|-----5-5-5-5-5-5-5-5-5-5-5---5---|
			|-7-7-7-7-----7-7-7-7-7-7-7-7-7-7-|-----7-7-7-7-7-7-7-7-7-7-7---7---|
			|-5-5-5-5-----5-5-5-5-5-5-5-5-5-5-|-----5-5-5-5-5-5-5-5-5-5-5---5---|
			|---------------------------------|---------------------------------|
			1 e + a 2 e + a 3 e + a 4 e + a   1 e + a 2 e + a 3 e + a 4 e + a
			|---------------------------------|---------------------------------|
			|---------------------------------|---------------------------------|
			|-9-9-9-9-----7-7-7-7-7-7-7-7-7-7-|-----7-7-7-7-7-7-9-9-9-9-9-91010-|
			|-8-8-8-8-----8-8-8-8-8-8-8-8-8-8-|-----8-8-8-8-8-8-3-8-8-8-7-7-7-7-|
			|-8-8-8-8-----8-8-8-8-8-8-8-8-8-8-|-----8-8-8-8-8-8-8-8-8-8-8-8-8-8-|
			|---------------------------------|---------------------------------|
			1 e + a 2 e + a 3 e + a 4 e + a   1 e + a 2 e + a 3 e + a 4 e + a
			|---------------------------------|---------------------------------|
			|---------------------------------|---------------------------------|
			|10~------------------------------|---------------------------------|
			|-7~------------------------------|---------------------------------|
			|-8~------------------------------|---------------------------------|
			|---------------------------------|---------------------------------|
			
tf_artist = "Bring Me The Horizon"; tf_song = "It Never Ends"; Learn to play "It Never Ends" with online video lessons

ĂŽnscrie-te la newsletter


Join the ranks ! LIKE us on Facebook