Liquor And Love Lost Solo Tab - Bring Me the Horizon






Liquor and Love Lost - Bring Me The Horizon

Drop C

Starts at 'I drink away the day...'


|------------------------------------------|
|------------------------------------------|
|-16-14-13-14-13----13---------------------|
|----------------16----16-14-16-14-13-11~--|
|------------------------------------------|
|------------------------------------------|


|--------------------------------------------------|
|--------------------------------------------------|
|-------------------------------14-13~--18~-18~~~--|
|-11-11-11-10-11-13-11-13-14-13--------------------|
|--------------------------------------------------|
|--------------------------------------------------|


|------------------------------------------|
|------------------------------------------|
|-------21-------21-------21-------21------|
|-18-19----18-19----18-19----18-19----18~--|
|------------------------------------------|
|------------------------------------------|


|----------------------------------------------------|
|----------------------------------------------------|
|----------------------------------------------------|
|-18-19-16-18-16-14-16-14-13-14-13-11-13-11-9-11~----|
|----------------------------------------------------|
|------------------------------------------------11--|


|------------------------------------------------------------------|
|-----------------------------17-16----16--------------------------|
|----------11----------14-13~-------18----18-16-18-16-15-16-15-----|
|-11-13-14----14-13-14-----------------------------------------18--|
|------------------------------------------------------------------|
|------------------------------------------------------------------|


|----------22-----------20-18-17-18-17----17--------------------------|
|----17-21----21-17--------------------19----19-17-19-17-16-17-16-----|
|-18----------------18~-------------------------------------------18--|
|---------------------------------------------------------------------|
|---------------------------------------------------------------------|
|---------------------------------------------------------------------|


|-----------------------------------------------------------------|
|-16--------------------------------------------------------------|
|----18-16-18-16-14-16-14----14----------------------------14-16--|
|-------------------------18----18-16-18-16-14----14-16-18--------|
|----------------------------------------------18-----------------|
|-----------------------------------------------------------------|


|----------22----------------20----------------22-----------|
|----17-21----21-17----17-21----21-17----17-21----21-17-----|
|-18----------------18----------------18----------------18--|
|-----------------------------------------------------------|
|-----------------------------------------------------------|
|-----------------------------------------------------------|


|-------20----------------22----------------20--------|
|-17-21----21-17----17-21----21-17----17-21----21-17--|
|----------------18----------------18-----------------|
|-----------------------------------------------------|
|-----------------------------------------------------|
|-----------------------------------------------------|


|-18-17----17---------------------------|
|-------19----19-17-19-17-16------------|
|----------------------------20bbbb-18--|
|---------------------------------------|
|---------------------------------------|
|---------------------------------------|


please rate and comment. i think its pretty much perfect...

ĂŽnscrie-te la newsletter


Join the ranks ! LIKE us on Facebook