Pray For Plagues Tab - Bring Me the Horizon






                              PRAY FOR PLAGUES
                            Bring Me The Horizon
                  (From The 2006 Album Count Your Blessings)


Transcribed by Jonathan Casper (confinedforever)

Gtr 1 - Tuning Drop B - (B F# B E G# C#)

/ - SLIDE UP TO          h - HAMMER ON
 - SLIDE DOWN TO        p - PULL OF
~ - VIBRATO              * - PALM MUTE
" - TREMOLO PICKING     [] - ARTIFICAL HARMONIC

I ONLY COULD TAB ONE GUITAR!!!




    0:00 - 0:03
|-----------------------------------------------------------|
|-----------------------------------------------------------|
|--------------------------------------------------8h11p8---|
|--1-4-3-1------------------------------7h10p7--------------|
|--1-4-3-1-----6--9----5h8p5--4h7p4-------------------------|
|--1-4-3-1--0-------0---------------0-0--------0-0----------|
   * * *    *                       * *        * *

  0:04 - 0:05
|--------------------------------------|
|--------------------------------------|
|--7---6-6-9-----------------8-10-11---|
|---------------------7-9-10-----------|
|--------------7-9-10------------------|
|----0---------------------------------|
     *

   0:06 - 0:13
|-----------------------------------------------------------|
|-----------------------------------------------------------|
|-----------------------------------------------------------| x2
|--------------------3----------------------7-----6---------|
|----5h8-4-----5-----------6------5h8-4-----------------8---|
|--0-------0-0---0-0---0-0----0-0-------0-0---0-0---0-0-----|
   *       * *   * *   * *    * *       * *   * *   * *

 0:14 - 0:15
|------------|
|------------|
|---[12]~ ---|
|------------|
|------------|
|------------|

  0:16 - 0:49
|-----------------------------------------------------------|----------- 
|-----------------------------------------------------------| ---------- 
|-----------------------------------------------------------|  --------- 
|--------------------3----------------------7-----6---------|     both-  x2
|----5h8-4-----5-----------6------5h8-4-----------------8---|    ------- 
|--0-------0-0---0-0---0-0----0-0-------0-0---0-0---0-0-----|     ------ 
   *       * *   * *   * *    * *       * *   * *   * *             
                                                                     
|---------------------------------------------------------------------|
|---------------------------------------------------------------------|
|------7h10-6------7-----10-----8------7h10-6-----6h9---7h10---8h11---|
|---------------------------------------------------------------------|
|---------------------------------------------------------------------|
|--0-0---------0-0---0-0----0-0----0-0--------0-0-----0------0--------|
   * *         * *   * *    * *    * *        * *     *      *

   0:50 - 0:53
|---------------------------------------------------|
|---------------------------------------------------|
|----------------------------[12]bend--[14]bend-----|
|---------------------------------------------------|
|--5----7----8----4---------------------------------|
|----00---00---00---00-00-00------00-00-----00-00---|
     **   **   **   ** ** **      ** **     ** **

   0:54 - 0:57
|-----------------------------------------------------|
|-----------------------------------------------------|
|----------------------------[14]bend--[12]bend-------|
|-----------------------------------------------------|
|--5----7----8----4-------------------------5-4-------|
|----00---00---00---00-00-00------00-00---------4-3---|
     **   **   **   ** ** **      ** **

  0:58 - 1:00
|--------------|
|--------------|
|--------------|
|--1-4-5-1-1---|
|--1-4-5-1-1---|
|--1-4-5-1-1---|

   1:01
|-------------|
|-------------|
|-------------|
|--0-0--0-0---|
|--0-0--0-0---|
|--0-0--0-0---|
   * *  * *

  1:02 - 1:08
|-------------------------------------------------|
|-------------------------------------------------|
|-------------------------------------------------|
|--0-0--0-0---0-00-00-00---0000000--3-1-0-4-3-1---|
|--0-0--0-0---0-00-00-00---0000000--3-1-0-4-3-1---|
|--0-0--0-0---0-00-00-00---0000000--3-1-0-4-3-1---|
   * *  * *   * ** ** **   *******

  1:09 - 1:17
|--------------------------------------------------------------------|
|--------------------------------------------------------------------|
|---------------------------------------------------------[12]bend---|
|--0-0--0-0---0-00-00-00---0000000--3-1-0-4-3-1--0-0--0-0------------|
|--0-0--0-0---0-00-00-00---0000000--3-1-0-4-3-1--0-0--0-0------------|
|--0-0--0-0---0-00-00-00---0000000--3-1-0-4-3-1--0-0--0-0------------|
   * *  * *   * ** ** **   *******               * *  * *

  1:18 - 1:24
|-------------------------------------------------|
|-------------------------------------------------|
|-------------------------------------------------|
|--0-0--0-0---0-00-00-00---0000000--3-1-0-4-3-1---|
|--0-0--0-0---0-00-00-00---0000000--3-1-0-4-3-1---|
|--0-0--0-0---0-00-00-00---0000000--3-1-0-4-3-1---|
   * *  * *   * ** ** **   *******

  1:25 - 1:29
|------------------------------------|
|------------------------------------|
|------------------------------------|
|--0-0--0-0---0-00-00-00---0000000---|
|--0-0--0-0---0-00-00-00---0000000---|
|--0-0--0-0---0-00-00-00---0000000---|
   * *  * *   * ** ** **   *******

  1:31 - 1:56
|---------------------------------------------------------------|
|---------------------------------------------------------------|
|---------------------------------------------------------------| x6
|----------4---------3-------------------12----------11---------|
|------6-5-------5-4-------3h5-----10-12-------9--11------------|
|--0-0-------0-0-------0-0-----0-0---------0-0----------10h12---|
   * *       * *       * *     * *         * *

 1:57 - 1:58
|--------|
|--------|
|--------|
|--0-0---|
|--0-0---|
|--0-0---|
   * *

  1:59 - 2:07
|---------------------------------------------------------------|
|---------------------------------------------------------------|
|---------------------------------------------------------------| x2
|----------4---------3-------------------12----------11---------|
|------6-5-------5-4-------3h5-----10-12-------9--11------------|
|--0-0-------0-0-------0-0-----0-0---------0-0----------10h12---|
   * *       * *       * *     * *         * *

  2:08 - 2:11
|--------------------------------13-16---------------------------15-17-18--|
|--------------------------12-15------------------------15-17-18-----------|
|--------------------11-14---------------------14-16-17--------------------|
|--------------10-13------------------13-15-16-----------------------------|
|--------------------------------------------------------------------------|
|-00-00-00-00--------------------------------------------------------------|
  ** ** ** **

|--17p13p10-17p13p10-9p12p16-9p12p16-------------|
|------------------------------------------------|
|------------------------------------------------|
|------------------------------------------------|
|------------------------------------------------|
|------------------------------------------------|

  2:12 - 2:24 (Solo)
|--------------------17----------------------|
|-----------------18----18-------------------|
|--------------19----------19----------------|
|-----------19----------------19-------------|x2
|-----17-20----------------------20-17-------|
|--19----------------------------------19----|

|--------------------16----------------------| 
|-----------------17----17-------------------|
|--------------18----------18----------------|
|-----------18----------------18-------------|x2
|-----16-19----------------------19-16-------|
|--18----------------------------------18----|

  Solo Rhythm
|-------------------------------------------------|
|-------------------------------------------------|
|-------------------------------------------------|
|--0-------------6----------0-------------6--6---|
|--0-------------6----------0-------------6--6---|
|--0-------------6---/18----0-------------6--6---|


  2:25 - 2:32
|---------------------------------------------------|
|---------------------------------------------------|
|---------------------------------------------------|
|--------------------------------------10-9---------|
|-----------"12(x6)-"11(x12)-----11------------11---|
|--"12(x32)-------------------12----12------12------|
                              *     *       *

  2:33 - 2:40
|-------------------------------------------------------------------|
|-------------------------------------------------------------------|
|----------7---------------------[7]---------7---------7-6--10--6---|
|--0-3-2-0-7-0-3-2-0-8-7-0-3-2-0-----0-3-2-0-7-0-3-2-0-7-6--10--6---|
|--0-3-2-0---0-3-2-0-8-7-0-3-2-0-----0-3-2-0---0-3-2-0--------------|
|--0-3-2-0---0-3-2-0-8-7-0-3-2-0-----0-3-2-0---0-3-2-0-----0---0----|
   * * * *   * * * *     *     *     * * * *   * * * *     *   *


  2:41 - 2:45
|--------------------------------------------------------|
|--------------------------------------------------------|
|----------7---------------------[7]---------7-----------|
|--0-3-2-0-7-0-3-2-0-8-7-0-3-2-0-----0-3-2-0-7-0-0-0-0---|
|--0-3-2-0---0-3-2-0-8-7-0-3-2-0-----0-3-2-0---0-0-0-0---|
|--0-3-2-0---0-3-2-0-8-7-0-3-2-0-----0-3-2-0---0-0-0-0---|
   * * * *   * * * *     *     *     * * * *   * * * *

  2:46 - 2:48
|-------------------------------------------------------------------------|
|--------------------10h13p10h13p10h13--9h12p9h12p9h12--------------------|
|--11h14p11h14p11h14-----------------------------------10h13p10h13p10h13--|
|-------------------------------------------------------------------------|
|-------------------------------------------------------------------------|
|-------------------------------------------------------------------------|


   2:49 - 2:55
|---------------------------------------------------------|
|---------------------------------------------------------|
|--------------------------------------------------[12]---|
|--0-3-2-0---0-3-2-0-8-0-0---0-3-2-0---0-3-2-0-8-0--------|
|--0-3-2-0---0-3-2-0-8-0-0---0-3-2-0---0-3-2-0-8-0--------|
|--0-3-2-0---0-3-2-0-8-0-0---0-3-2-0---0-3-2-0-8-0--------|
   * * * *   * * * *   * *   * * * *   * * * *   *

   2:56 - 3:01
|------------------------------------------------|
|------------------------------------------------|
|------------------------------------------------|
|--0-3-2-0---0-3-2-0-8-0-0---0-3-2-0---0-3-2-0---|
|--0-3-2-0---0-3-2-0-8-0-0---0-3-2-0---0-3-2-0---|
|--0-3-2-0---0-3-2-0-8-0-0---0-3-2-0---0-3-2-0---|
   * * * *   * * * *   * *   * * * *   * * * *

  3:02 - 3:03
|---------------------------------------------------|
|---------------------------------------------------|
|------------------------------------------8h11p8---|
|------------------------------7h107p7--------------|
|-----6--9----5h8p5--4h7p4--------------------------|
|--0-------0---------------0-0---------0-0----------|
   *       *               * *         * *

   3:04 - 3:06
|-----------------------------------------|
|-----------------------------------------|
|--[7]--[6]-6-9-----------------8-10-11---|
|-----------------------7-9-10------------|
|---------------7-9-10--------------------|
|-----0-----------------------------------|
      *

   3:07 - 3:14
|-----------------------------------------------------------|
|-----------------------------------------------------------|
|-----------------------------------------------------------| x2
|--------------------3----------------------7-----6---------|
|----5h8-4-----5-----------6------5h8-4-----------------8---|
|--0-------0-0---0-0---0-0----0-0-------0-0---0-0---0-0-----|
   *       * *   * *   * *    * *       * *   * *   * *

   3:15 - 3:23
|----------------------------------------------------------------|
|----------------------------------------------------------------|
|----------------------------------------------------------------| x2
|----------------------3-----------------------------------------|
|------5h8-4-----5-----------6------5h8-4-----6h9---7h10---5h8---|
|--0-0-------0-0---0-0---0-0----0-0-------0-0-----0------0-------|
   * *       * *   * *   * *    * *       * *     *      *

   3:24 - 3:33
|---------------------------------------|
|---------------------------------------|
|---------------------------------------|
|--0-----------0------------------------|
|--0-----------0------------------------|
|--0-----------0----------3-1-0-4-3-1---|


  3:34 - 3:37
|--------------------------------------------------------|
|--------------------------------------------------------|
|--------------------------------------------------------|
|--0---------------------------------------3-1-0-4-3-1---|
|--0-----5h8---4-----5h8---11-----5h8------3-1-0-4-3-1---|
|--0-0-0-----0---0-0-----0----0-0-----0-0--3-1-0-4-3-1---|
     * *     *   * *     *    * *     * *

   3:38 - 3:57
|--------------------------------------------------------------------|
|--------------------------------------------------------------------|
|-----------------------------------------8-7-5----------------------|
|--0--------------------------------------------8-7-5----------------|
|--0-----5h8---4-----5h8---11-----5h8-----------------8-7-5--6-5-3---|
|--0-0-0-----0---0-0-----0----0-0-----0-0----------------------------|
     * *     *   * *     *    * *     * *                           /
                                                                   /
|----------------------------------------------------------------------         /
|----------------------------------------------------------------------        /
|--------------------------------------------------------|      / both-  x2
|--0---------------------------------------3-1-0-4-3-1-----------------      /
|--0-----5h8---4-----5h8---11-----5h8------3-1-0-4-3-1-----------------     /
|--0-0-0-----0---0-0-----0----0-0-----0-0--3-1-0-4-3-1---| ------------ 
     * *     *   * *     *    * *     * *

  4:00 - 4:14
|---------------------------------------------------------|
|---------------------------------------------------------|
|--------------------------------------------------[12]---| x2
|--0-3-2-0---0-3-2-0-8-0-0---0-3-2-0---0-3-2-0-8-0--------|
|--0-3-2-0---0-3-2-0-8-0-0---0-3-2-0---0-3-2-0-8-0--------|
|--0-3-2-0---0-3-2-0-8-0-0---0-3-2-0---0-3-2-0-8-0--------|
   * * * *   * * * *   * *   * * * *   * * * *   *

  4:15 - 4:16
|------------|
|------------|
|------------|
|--0-3-2-0---|
|--0-3-2-0---|
|--0-3-2-0---|
   * * * *

     End =]
ya thats it so i hope u like it, i worked on it for a while and no one else has put it 
so ya here it is! enjoy
- jonathan

ĂŽnscrie-te la newsletter


Join the ranks ! LIKE us on Facebook