Rawwwr Tab - Bring Me the Horizon






I am not exactly sure about the tuning to this song but i think it is in drop C, i know 
missed one part towards the end but i will get around to it
Enjoy

= plam mute

Riff 1
Gtr 1
E ------------------------------------------------------------|
B ------14-13---14-13---14141414-----14-13---14-13---14141414-|
G ------17-16---17-16---17171717-----17-16---17-16---17171717-|
D ------------------------------------------------------------|X4
A --0-0-------0-------0----------0-0-------0-------0----------|
C --0-0-------0-------0----------0-0-------0-------0----------|
                                            

Riff 2
Gtr 1                                        4th time
E -------------------------------|  |-------------------------|
B ----------14---------14-----14-|  |----------14-------------|
G ----------17---------17-----17-|  |----------17-------------|
D -------------------------------|X3|-------------------------|
A --0-0-0-0----0-0-0-0----0-0----|  |--0-0-0-0----0-0-0-0-----|
C --0-0-0-0----0-0-0-0----0-0----|  |--0-0-0-0----0-0-0-0-----|
                                       

Riff 2
Gtr 1
E -------------------------------|
B ----------14---------14-----14-|
G ----------17---------17-----17-|
D -------------------------------|X4
A --0-0-0-0----0-0-0-0----0-0----|
C --0-0-0-0----0-0-0-0----0-0----|
                   

Riff 1
Gtr 1
E -------------------------------|
B ------14-13---14-13---14141414-|
G ------17-16---17-16---17171717-|
D -------------------------------|X1
A --0-0-------0-------0----------|
C --0-0-------0-------0----------|
                   

Riff 3
Gtr 1
E ------------------------------------------|  |-------------|
B ------------------------------------------|  |-------------|
G ---------------------------------------17v|  |-------------|
D ------------------------------------------|X2|-------------|break
A --0-0-0-0--------0-0-0-0--------0-0-0-----|  |--0--0-------|
C --0-0-0-0--------0-0-0-0--------0-0-0-----|  |--0--0-------|
                                         
 ~~~~~~~~~~~~~~~~~~~~~~~~~~~~~~~~~~~~~~~~~~~~~~~~~~~~~~~~~~~~~
                             Whole Riff X2
Riff 3
Gtr 1
E ------------------------------------------|  |-------------|
B ------------------------------------------|  |-------------|
G ---------------------------------------17v|  |-------------|
D ------------------------------------------|X2|-------------|break
A --0-0-0-0--------0-0-0-0--------0-0-0-----|  |--0--0-------|
C --0-0-0-0--------0-0-0-0--------0-0-0-----|  |--0--0-------|
                                                |
                                                             |
Gtr 2                                                        |
E ------------------------------------------|  |-------------|
B --14--14--14--14--14--14--14--14--14--14--|  |-14-14-------|
G --17--17--17--17--17--17--17--17--17--17--|  |-17-17-------|
D ------------------------------------------|X2|-------------|break
A ------------------------------------------|  |-------------|
C ------------------------------------------|  |-------------|


Riff 4
Gtr 1

E ------------------------------------------------------------------|
B ------------------------------------------------------------------|
G ------------------------------------------------------------------|
D ------------------------------------------------------------------|X3
A --0-2-3-0-3-2-0-2--0-0--0-2-3-0-3-2-0-2-0-0-2-3-0-3-2-0-2--0-0-0-0|
C --0-2-3-0-3-2-0-2--0-0--0-2-3-0-3-2-0-2-0-0-2-3-0-3-2-0-2--0-0-0-0|
                                     

E ----------| |------------------------------------------------|
B ----------| |---------13---------13---------13---------13----|
G ----------| |---------17---------17---------17---------17----|
D ----------| |------------------------------------------------|X4
D -0-0--0-0-| |---0-0--------0-0--------0-0--------0-0---------|
C -0-0--0-0-| |---0-0--------0-0--------0-0--------0-0---------|
                                          

ĂŽnscrie-te la newsletter


Like us on Facebook