Re They Have No Reflections (ver2) Tab - Bring Me the Horizon






01.) RE: They Have No Reflections

Tuning: Drop C (C G C F A D)

Intro:
D]--------17-17-------17-17-----------17-17-------17-17--------17--17--17--16--|
A]--------20-20-------20-20-----------20-20-------20-20--------20--20--20--20--|
F]-----------------------------------------------------------------------------|
C]-----------------------------------------------------------------------------|
G]--0-0-0-------0-0-0-------0-0-0-0-0-------0-0-0-------0-0-0------------------|
C]--0-0-0-------0-0-0-------0-0-0-0-0-------0-0-0-------0-0-0------------------|
PM  . . .       . . .       . . . . .       . . .       . . .


Verse 1 Part 1: 
"And I've been dragging the lake."
  Guitar 1
D]-----------------------------------|      |----17-17---17-17--|
A]-----------------------------------|      |----20-20---20-20--|
F]--(11p0-10p0-11p0-13p0-11p0-10p0)--| x3   |-------------------| x4
C]-----------------------------------| then |-------------------| the whole
G]-----------------------------------| play |--0-------0--------| thing
C]-----------------------------------|      |--0-------0--------|
PM                                         .       .

  Guitar 2
D]----------------------------16-16---16-16--|
A]----------------------------20-20---20-20--|
F]-------------------------------------------| x4
C]-------------------------------------------|
G]--0-0-0-------0-0-0-------0-------0--------|
C]--0-0-0-------0-0-0-------0-------0--------|
PM  . . .       . . .       .       .


Verse 1 Part 2:
"Where you belong."
  Guitar 1
D]----------------------------17-17---17-17--|
A]----------------------------20-20---20-20--|
F]-------------------------------------------| x2
C]-------------------------------------------|
G]--------------------------0-------0--------|
C]--------------------------0-------0--------|
PM                          .       .

  Guitar 2
D]----------------------------17-17---17-17--|
A]----------------------------20-20---20-20--|
F]-------------------------------------------| x2
C]-------------------------------------------|
G]--0-0-0-------0-0-0-------0-------0--------|
C]--0-0-0-------0-0-0-------0-------0--------|
PM  . . .       . . .       .       .


Verse 1 Part 3:
  Guitar 1
D]-----------------------------------|      |----17-17---17-17--|
A]-----------------------------------|      |----20-20---20-20--|
F]--(11p0-10p0-11p0-13p0-11p0-10p0)--| x3   |-------------------| x2
C]-----------------------------------| then |-------------------| the whole
G]-----------------------------------| play |--0-------0--------| thing
C]-----------------------------------|      |--0-------0--------|
PM                                         .       .

  Guitar 2
D]----------------------------17-17---17-17--|
A]----------------------------20-20---20-20--|
F]-------------------------------------------| x2
C]-------------------------------------------|
G]--0-0-0-------0-0-0-------0-------0--------|
C]--0-0-0-------0-0-0-------0-------0--------|
PM  . . .       . . .       .       .


Fill 1:
  Guitar 1 + 2
D]--------------------------------------------------------|
A]--------------------------------------------------------|
F]--------------------------------------------------------| x2
C]-------------------------------5--2v--------------------|
G]--0--12h13p12----10--0-0--12h13p12----10--7-------1-----|
C]--0------------8-----0-0------------8-------------------|
PM  .                 .


Verse 2:
"I don't know what they said."
  Guitar 1 + 2
D]------------------------------------------------------|
A]------------------------------------------------------|
F]------------------------------------------------------| x2
C]------------------------------8t-10t-7t-----7t-8t-5t--|
G]--0-----10t-12t-10t-8t-10t----------------------------|
C]--0-------------------------8-------------7-----------|


"Left me for dead!"
  Guitar 1 + 2
D]---------------------------------------------------|
A]---------------------------------------------------|
F]---------------------------------------------------| x4
C]---------------------------8t-10t-7t-----7t-8t-5t--|
G]--0-0-0-0--12t-10t-8t-10t--------------------------|
C]--0-0-0-0------------------8-------------7---------|
PM  . . . .

D]-------------------------------------------------|
A]-------------------------------------------------|
F]-------------------------------------------------|
C]-------------------------------------------------|
G]--0-0-0-0-0-0-0-0-0-0-0-0-0-0-0-0-0-0-0-0-0-0-0--|
C]--0-0-0-0-0-0-0-0-0-0-0-0-0-0-0-0-0-0-0-0-0-0-0--|
PM  . . . . . . . . . . . . . . . . . . . . . . .


Interlude 1:
  Guitar 1 + 2
D]---------------------------|    |-----------------------------------------|
A]---------------------------|    |-----------------------------------------|
F]---------------------------| x3 |-----------------------------------------|
C]---------------------------|    |-----------------------------------------|
G]--0-0-0-0---0---0-0-0-0-0--|    |--0-0-0-0--000-000-000-000--0-0-0-0-0-0--|
C]--0-0-0-0---0---0-0-0-0-0--|    |--0-0-0-0--000-000-000-000--0-0-0-0-0-0--|
PM  . . . .   .   . . . . .          . . . .  ... ... ... ...  . . . . . .


Verse 3:
"And when I'm done."
  Guitar 1 + 2
D]--------------------------------------------------|
A]--------------------------------------------------|
F]--------------------------------------------------|
C]-----7t-5t-3t-7t-5t-3t-5t---7t-5t-3t-7t-5t-3t-5t--|
G]--5t----------------------------------------------|
C]--------------------------------------------------|

D]--------------------------------------------------|
A]------------------------10t-8t-6t-8t-6t-5t-6t-5t--|
F]-----------------9t-7t----------------------------|
C]--7t-5t-3t-7t-5t----------------------------------|
G]--------------------------------------------------|
C]--------------------------------------------------|


Breakdown:
  Guitar 1 + 2
D]---------------------------------------------------------|
A]---------------------------------------------------------|
F]---------------------------------------------------------|
C]---------------------------------------------------------|
G]-0-4-3-0-1~------------0-4-3-0-1~------------0-4-3-0-1~--|
C]-0-4-3-0-1~------------0-4-3-0-1~------------0-4-3-0-1~--|
PM . . . .               . . . .               . . . .


Verse 4:
"Nail the casket one more time."
  Guitar 1 + 2
D]-----------------------------------|
A]-----------14---------------14/16--|
F]-----------17---------------17/19--| x4
C]-----------------------------------|
G]--0-1-0-0------0-1-0-1-0-0---------|
C]--0-1-0-0------0-1-0-1-0-0---------|
PM  . . . .      . . . . . .


Then some little fill thing is played here.
It's kinda hard to hear and workout.
So I couldn't put it up. Sorry


  Guitar 1 + 2
D]-----------------------------------|
A]-----------14---------------14/16--|
F]-----------17---------------17/19--| x4
C]-----------------------------------|
G]--0-1-0-0------0-1-0-1-0-0---------|
C]--0-1-0-0------0-1-0-1-0-0---------|
PM  . . . .      . . . . . .


D]------------------------------------|
A]------------------------------------|
F]------------------------------------|
C]------------------------------------|
G]--0-3-2-1-0~------------0-3-2-1-0~--|
C]--0-3-2-1-0~------------0-3-2-1-0~--|
PM  . . . .               . . . .


Verse 5:
"Twist the knife. It won't last forever."
D]------------------------------------|
A]------------------------------------|
F]------------------------------------|
C]------------------------------------|
G]--0-3-2-1-0~------------0-3-2-1-0~--|
C]--0-3-2-1-0~------------0-3-2-1-0~--|
PM  . . . .               . . . .


"Twist the knife. It won't hurt."
D]-------------------------------------------|
A]-----------[8]-----------[8]-------[8]--|
F]-----------[7]-----------[7]-------[7]--| x4
C]-------------------------------------------|
G]--0-3-2-0--------0-3-2-0--------0-0--------|
C]--0-3-2-0--------0-3-2-0--------0-0--------|
PM  . . . .        . . . .        . .


Interlude 2:
  Guitar 1 + 2
D]------------------------------------------------------------------------------------|
A]------------------------------------------------------------------------------------|
F]--8-7------------------------------------8-7----------------------------------------|
C]--8-7-------------------8-7-5h7p5--------8-7----------------------------------------|
G]--6-5---------------5-6-----------7p5----6-5---------------5h6p5h6p5h6-7h8p7h8p7h8--|
C]-------0-0-000-0-0----------------------------0-0-000-0-0---------------------------|
PM       . . ... . .                            . . ... . .

E]----------------------------------------------------------------------|
B]----------------------------------------------------------------------|
G]--8-7------------------------------------8-7--------------------------|
D]--8-7-------------------8-7-5h7p5--------8-7--------------------------|
A]--6-5---------------5-6-----------7p5----6-5---------------5-5---7-7--|
C]-------0-0-000-0-0----------------------------0-0-000-0-0--5-5---7-7--|
PM       . . ... . .                            . . ... . .  . .   . .

D]------------------------------------------------------------------------------------|
A]------------------------------------------------------------------------------------|
F]--8-7------------------------------------8-7----------------------------------------| x4
C]--8-7-------------------8-7-5h7p5--------8-7----------------------------------------|
G]--6-5---------------5-6-----------7p5----6-5---------------5h6p5h6p5h6-7h8p7h8p7h8--|
C]-------0-0-000-0-0----------------------------0-0-000-0-0---------------------------|
PM       . . ... . .                            . . ... . .


Verse 5:
"Do not change the subject."
  Guitar 1 +2
D]--------------------------------------------|
A]--------------------------------------------|
F]--------------------------------------------| x2
C]--------------------------------------------|
G]--0000-00-00-0000--5h6p5h6p5h6-7h8p7h8p7h8--|
C]--0000-00-00-0000---------------------------|
PM  .... .. .. ....

D]--------------------------------------|
A]--------------------------------------|
F]--------------------------------------| x4
C]----5t-3t-2t-3t-2t----5-7-8----7-8-5--|
G]--5-----------------------------------|
C]--------------------5--------7--------|

D]-------------------|
A]-------------------|
F]-------------------|
C]-------------------|
G]--0--3--0---5-3-2--|
C]--0--3--0---5-3-2--|


Bridge Part 1:
"Forever, it won't last forever."
  Guitar 1
D]------------------------------------------------|
A]------------------------------------------------|
F]------------------------------------------------|
C]--(Silent for a bit while guitar 2 is playing)--|
G]------------------------------------------------|
C]------------------------------------------------|

  Guitar 2
D]-------------------|
A]-------------------|
F]-------------------| x2
C]-------------------|
G]--0--3--0---5-3-2--|
C]--0--3--0---5-3-2--|


Bridge Part 2:
"So nail the casket."
  Guitar 1
D]---------------|    |---------------------|
A]---------------|    |---------------------|
F]---------------| x2 |---------------------|
C]--7-----8-7-5--|    |--7-----8-7-5-7-5-2--|
G]---------------|    |---------------------|
C]---------------|    |---------------------|

  Guitar 2
D]-------------------|
A]-------------------|
F]-------------------| x3
C]-------------------|
G]--0--3--0---5-3-2--|
C]--0--3--0---5-3-2--|


Interlude 2:
  Guitar 1 + 2
D]-------------------------------------------------------|
A]-------------------------------------------------------|
F]-------------------------------------------------------| x2
C]-----------------1

ĂŽnscrie-te la newsletter


Join the ranks ! LIKE us on Facebook