Re They Have No Reflections Tab - Bring Me the Horizon






i this is right, it's kind of hard to hear all of the parts, but for the most part
i'm pretty sure it's right...if you have any corrections please either send them
to me or fix them yourselves, thanks....have fun!!!!!

Bring Me The Horizon
RE: They Have No Reflections (drop c)

Intro

---------16-16-------------16-16-----------16-16-----------16-16----------------|
---------20-20-------------20-20-----------20-20-----------20-20----------------|
--------------------------------------------------------------------------------|
--------------------------------------------------------------------------------|
-0-0-0-------------0-0-0------------0000------------0-0-0-----------------------|
-0-0-0-------------0-0-0------------0000------------0-0-0-----------------------|
.#.#.#................#.#.#...............####..............#.#.#

-----------16--16--16--16----------------------------------------------------|
-----------20--20--20--20----------------------------------------------------|
-----------------------------------------------------------------------------|
-----------------------------------------------------------------------------|
-0-0-0-----------------------------------------------------------------------|
-0-0-0-----------------------------------------------------------------------|
.#.#.#

"I've been dragging the lake..."
-------------------------------------------------------------------|
-------------------------------------------------------------------|
---(8p0 7p0 8p0 11p0 10p0 8p0)-------------------------------------|
-------------------------------------------------------------------|
-------------------------------------------------------------------|
-------------------------------------------------------------------|

---------------------------------------------------------------------|
---------------------------------------------------------------------|
-----2h3p2--------------------2h3p2----------------------------------| x2
--------------------5------------------------5---2~------------------|
--0------------1---------0--------------1----------------------------|
--0----------------------0-------------------------------------------|

"I dont know what they said..."
---------------------------------------------------------------------------|
---------------------------------------------------------------------------|
---------------------------------------------------------------------------| x2
-------7*-5*-3*-7*-5*-3*-5*---------8*-10*-7*--------7*-8*-5*--------------|
--5------------------------------------------------------------------------|
-------------------------------------8---------------7---------------------|

"Left me for dead!" (the deep scream part)
-----------------------------------------------------------------------------|
-----------------------------------------------------------------------------|
-----------------------------------------------------------------------------| x4
--------------7*-5*-3*-5*------------8*-10*-7*-------7*-8*-5*----------------|
-0-0-0-0---------------------------------------------------------------------|
-0-0-0-0--------------------------8----------------7-------------------------|
.#.#.#.#
-----------------------------------------------------------------------|
-----------------------------------------------------------------------|
-----------------------------------------------------------------------|
-----------------------------------------------------------------------|
-0-0-0-0-0-0-0-0-0-0-0-0-0-0-0-0-0-------------------------------------|
-0-0-0-0-0-0-0-0-0-0-0-0-0-0-0-0-0-------------------------------------|
.#########################
-----------------------------------------------------------------------|
-----------------------------------------------------------------------|
-----------------------------------------------------------------------|
-----------------------------------------------------------------------|
-0-0-0--0---0---0-0-0---0---0-0-0-0------------------------------------|
-0-0-0--0---0---0-0-0---0---0-0-0-0------------------------------------|
.#.#.#..#....#....#.#.#....#....#.#.#.#
----------------------------------------------------------------|
----------------------------------------------------------------|
----------------------------------------------------------------|
----------------------------------------------------------------|
--0-3-2-0-3-2---------------------------------------------------|
--0-3-2-0-3-2---------------------------------------------------|
..#.#.#.#.#.#
----------------------------------------------------------------------|
----------------------------------------------------------------------|
----------------------------------------------------------------------|
--------7*-5*-3*-7*-5*-3*-5*------------------------------------------|
---5*-----------------------------------------------------------------|
----------------------------------------------------------------------|

--------------------------------------------------------------------|
------------------------- 10*-8*-6*-8*-6*-5*-6*-5*------------------|
---------------- 9*-7*----------------------------------------------|
--7*-5*-3*-7*-5*----------------------------------------------------|
--------------------------------------------------------------------|
--------------------------------------------------------------------|

----------------------------------------------------------------|
----------------------------------------------------------------|
----------------------------------------------------------------| x3
----------------------------------------------------------------|
-0-5-3-2-1~-----------------------------------------------------|
-0-5-3-2-1~-----------------------------------------------------|
.#.#.#.#

"Nail the casket one more time..."
-----------------------------------------------------------------------------|
------------14---------------------14-/-16-----------------------------------|
------------17---------------------17-/-19-----------------------------------| x8
-----------------------------------------------------------------------------|
-0-1-0-0---------0-1-0-1-0-0-------------------------------------------------|
-0-1-0-0---------0-1-0-1-0-0-------------------------------------------------|
.#.#.#.#...........#.#.#.#.#.#

------------------------------------------------------------------------------|
------------------------------------------------------------------------------|
------------------------------------------------------------------------------| x4
------------------------------------------------------------------------------|
-0-3-2-1-0~-------------------------------------------------------------------|
-0-3-2-1-0~-------------------------------------------------------------------|
.#.#.#.#

"Twist the knife...."
-----------------------------------------------------------------------------|
-------------[8]-----------------[8]--------------[8]---------------------| x4
-------------[7]-----------------[7]--------------[7]---------------------|
-----------------------------------------------------------------------------|
-0-3-2-0-------------0-3-2-0-----------0-0-----------------------------------|
-0-3-2-0-------------0-3-2-0-----------0-0-----------------------------------|
.#.#.#.#................#.#.#.#.............#.#

----------------------------------------------------------------------|
----------------------------------------------------------------------|
-8-7------------------------------------------------------------------|
-8-7------------------------8-7---5h7p5-------------------------------|
-6-5-----------------5-6---------------------7p5----------------------|
-------0-0-000-0-0----------------------------------------------------|
........#.#.###.#.#
^ continued
--------------------------------------------------------------------------|
--------------------------------------------------------------------------| x6
-8-7----------------------------------------------------------------------|
-8-7----------------------------------------------------------------------|
-6-5------------------5h6p5h6p5h6-/-7h8p7h8p7h8---------------------------|
--------0-0-000-0-0-------------------------------------------------------|
.........#.#.###.#.#

"Do not change the subject..."
--------------------------------------------------------------------------|
--------------------------------------------------------------------------|
--------------------------------------------------------------------------| x2
--------------------------------------------------------------------------|
-000-0-0-000--------------5h6p5h6p5h6-/-7h8p7h8p7h8-----------------------|
-000-0-0-000--------------------------------------------------------------|
.###.#.#.###
-----------------------------------------------------------------------------|
-----------------------------------------------------------------------------|
-----------------------------------------------------------------------------|
------5*-3*-2*-3*-2*---------5*-7*-8*-------7*-8*-5*-------------------------|
--5--------------------------------------------------------------------------|
--------------------------5---------------7----------------------------------|

-----------------------------------------------------------------------------|
-----------------------------------------------------------------------------|
-----------------------------------------------------------------------------|
-----------------------------------------------------------------------------| x7
-0--3--0--5--3--2------------------------------------------------------------|
-0--3--0--5--3--2------------------------------------------------------------|


---------------------------------------------------------------------------|
---------------------------------------------------------------------------|
---------------------------------------------------------------------------|
--7~~----7h8-7-5---(x4)--------8-7-5-7-5-2---------------------------------|
---------------------------------------------------------------------------|
---------------------------------------------------------------------------|

"I hate all my friends.."
-----------------------------------------------------------------------------|
-----------------------------------------------------------------------------|
------------------------------------------------------------------------ x10-|
--------------------1

ĂŽnscrie-te la newsletter


Join the ranks ! LIKE us on Facebook