Slow Dance (ver2) Tab - Bring Me the Horizon






Bring Me The Horizon - Slow Dance

Drop B Tuning
Tabbed by: David Carthy
. = Palm Mute
* = Pinch Harmonic
h = Hammer On
p = Pull Off


----------------------------------------------------------------------------

Guitar 1

|----------------|------------------------------------------|--------------|
|----------------|------------------------------------------|--------------|
|---TWICE--------|------------------------------------------|--------------|
|----------------|-------------4h7p4h7--3h6p3h6-------------|-----7-----4--|
|---5--8--7--4---|---5h8p5h8----------------------4h7p4h7---|--0--4--0--1--|
|----------------|------------------------------------------|--0--4--0--1--|
                                                               .     .

|--------------------------------------|--------(bend-trem-down)-----------|
|--------------------------------------|--------(bend-trem-down)-----------|
|--------------------------------------|--------(bend-trem-down)-----------|
|------------4h7p4h7--3h6p3h6----------|-----7--(bend-trem-down)-----------|
|---5h8p5h8-------------------4h7p4h7--|-----4--(bend-trem-down)-----------|
|--------------------------------------|--0--4--(bend-trem-down)-----------|
                                          .

|-------------------------------|------------------------------------------|
|-------------------------------|------------------------------------------|
|-------------------------------|------------------------------------------|
|-------------------------------|-----7-----4------------------------------|
|--0--0-0-0----0----0--0-0-0-0--|-----4-----1------------------------------|
|--0--0-0-0----0----0--0-0-0-0--|--0--4--0--1------------------------------|
   .  . . .    .    .  . . . .     .     .

|-------------------------------|------------------------------------------|
|-------------------------------|------------------------------------------|
|-------------------------------|------------------------------------------|
|-------------------------------|-----7-----4------------------------------|
|--0--0-0-0----0----0--0-0-0-0--|-----4-----1------------------------------|
|--0--0-0-0----0----0--0-0-0-0--|--0--4--0--1------------------------------|
   .  . . .    .    .  . . . .     .     .

|-------------------------------|------------------------------------------|
|-------------------------------|------------------------------------------|
|-------------------------------|----------------6*------------------------|
|-------------------------------|-----7-----4------------------------------|
|--0--0-0-0----0----0--0-0-0-0--|-----4-----1------------------------------|
|--0--0-0-0----0----0--0-0-0-0--|--0--4--0--1------------------------------|
   .  . . .    .    .  . . . .     .     .


|-------------------------------|--------------------------(bend-trem-down)|
|-------------------------------|--------------------------(bend-trem-down)|
|-------------------------------|--------------6*----------(bend-trem-down)|
|-------------------------------|-----7-----4--------------(bend-trem-down)|
|--0--0-0-0----0----0--0-0-0-0--|--0--4--0--1-----0-0-0-0--(bend-trem-down)|
|--0--0-0-0----0----0--0-0-0-0--|--0--4--0--1-----0-0-0-0--(bend-trem-down)|
   .  . . .    .    .  . . . .     .     .        . . . .


|------------------------------------------|-------------------------------|
|------------------------------------------|-------------------------------|
|------------------------------------------|-------------6*----------------|
|-------------4h7p4h7--3h6p3h6-------------|-----7-----4-------------------|
|---5h8p5h8----------------------4h7p4h7---|--0--4--0--1-------------------|
|------------------------------------------|--0--4--0--1-------------------|


|------------------------------------------|-------------------------------|
|------------------------------------------|-------------------------------|
|------------------------------------------|-------------6*-(hold)---------|
|-------------4h7p4h7--3h6p3h6-------------|-----7-----4-------------------|
|---5h8p5h8----------------------4h7p4h7---|--0--4--0--1-------------------|
|------------------------------------------|--0--4--0--1-------------------|



----------------------------------------------------------------------------

Guitar 2

|--------------|--------------------------------------------|--------------|
|--------------|--------------------------------------------|--------------|
|--TWICE-------|--------------------------------------------|--------------|
|--------------|-------------8h11p8h11--7h10p7h10-----------|-----7-----4--|
|--8--12-10-5--|--8h12p8h12-----------------------7h10p7h10-|-----4-----1--|
|--------------|--------------------------------------------|--0--4--0--1--|
                                                               .     .

|--------------------------------------------|--------(bend-trem-down)-----|
|--------------------------------------------|--------(bend-trem-down)-----|
|--------------------------------------------|--------(bend-trem-down)-----|
|-------------8h11p8h11--7h10p7h10-----------|-----7--(bend-trem-down)-----|
|--8h12p8h12-----------------------7h10p7h10-|-----4--(bend-trem-down)-----|
|--------------------------------------------|--0--4--(bend-trem-down)-----|
                                                .

|--------------------------------------------------------------------------|
|--------------------------------------------------------------------------|
|--------------------------------------------------------------------------|
|---------------8-----7----5---5---5---------------------------------------|
|---------5--------------------------------4-5-7----------5-------8-----7--|
|--0--00----0-0---0-0---0----0---0---0-0-0----------0--00----0-0----0-0----|
   .  ..    . .   . .   .    .   .   . . .          .  ..    . .    . ..


|---------------|----------------------------------------------------------|
|---------------|----------------------------------------------------------|
|---------------|----------------------------------------------------------|
|-----7-----4---|----------------------------------------------------------|
|--0--4--0--1---|----------------------------------------------------------|
|--0--4--0--1---|----------------------------------------------------------|
   .     .

|--------------------------------------------------------------------------|
|--------------------------------------------------------------------------|
|--------------------------------------------------------------------------|
|---------------8-----7----5---5---5---------------------------------------|
|---------5--------------------------------4-5-7----------5-------8-----7--|
|--0--00----0-0---0-0---0----0---0---0-0-0----------0--00----0-0----0-0----|
   .  ..    . .   . .   .    .   .   . . .          .  ..    . .    . ..

|---------------|-------------------------------|--------------------------|
|---------------|-------------------------------|--------------------------|
|---------------|-------------------------------|---------------6*---------|
|-----7-----4---|-------------------------------|-----7-----4--------------|
|--0--4--0--1---|--0--0-0-0----0----0--0-0-0-0--|-----4-----1--------------|
|--0--4--0--1---|--0--0-0-0----0----0--0-0-0-0--|--0--4--0--1--------------|
   .     .         .  . . .    .    .  . . . .     .     .


|-------------------------------|--------------------------(bend-trem-down)|
|-------------------------------|--------------------------(bend-trem-down)|
|-------------------------------|--------------6*----------(bend-trem-down)|
|-------------------------------|-----7-----4--------------(bend-trem-down)|
|--0--0-0-0----0----0--0-0-0-0--|--0--4--0--1-----0-0-0-0--(bend-trem-down)|
|--0--0-0-0----0----0--0-0-0-0--|--0--4--0--1-----0-0-0-0--(bend-trem-down)|
   .  . . .    .    .  . . . .     .     .


|-------------------------------|------------------------------------------|
|-------------------------------|------------------------------------------|
|-------------------------------|---------------6*-------------------------|
|-------------------------------|-----7-----4------------------------------|
|--0--0-0-0----0----0--0-0-0-0--|-----4-----1------------------------------|
|--0--0-0-0----0----0--0-0-0-0--|--0--4--0--1------------------------------|
   .  . . .    .    .  . . . .     .     .

|-------------------------------|------------------------------------------|
|-------------------------------|------------------------------------------|
|-------------------------------|---------------6*-(hold)------------------|
|-------------------------------|-----7-----4------------------------------|
|--0--0-0-0----0----0--0-0-0-0--|-----4-----1------------------------------|
|--0--0-0-0----0----0--0-0-0-0--|--0--4--0--1------------------------------|
   .  . . .    .    .  . . . .     .     .

Înscrie-te la newsletter


Join the ranks ! LIKE us on Facebook