Slow Dance Bass Tab - Bring Me the Horizon






Slow Dance  Bring Me the Horizon
  

 E|-------------------------------|----------------------------------|  
 B|-------------------------------|----------------------------------|
F#|--5------8-------7-------------|--5------8-------7----------------|
 B|--------------------------8----|--------------------------8-------| 


 E|------------------------------------------------------------------|
 B|------------------------------------------------------------------|
F#|--5----------8-----------7----------------------------------------|
 B|------------------------------------8-----------0---4-4----0---1-1|


 E|------------------------------------------------------------------|
 B|------------------------------------------------------------------|
F#|------------------------------------------------------------------|
 B|--0-0-0------------------0-----------0-0-0-0-0-0-0----------------|


 E|------------------------------------------------------------------|
 B|------------------------------------------------------------------|
F#|------------------------------------------------------------------|
 B|--0-0-0------------------0---4--4---0---1---1---------------------|


 E|------------------------------------------------------------------|
 B|------------------------------------------------------------------|
F#|------------------------------------------------------------------|
 B|--0-0-0-0-----0---------0-0-0-0-0-0-0-0-------0--4---4---0---1---1|

Timings are pretty easy so you can work them out for yourself. Cheers :)

Toby

ĂŽnscrie-te la newsletter


Like us on Facebook