Slow Dance Tab - Bring Me the Horizon






                                 SLOW DANCE
                            Bring Me The Horizon
                  (From The 2006 Album Count Your Blessings)


Transcribed by Jonathan Casper (confinedforever)

Gtr 1 - Tuning Drop B - (B F# B E G# C#)

/ - SLIDE UP TO          h - HAMMER ON
 - SLIDE DOWN TO        p - PULL OF
~ - VIBRATO              * - PALM MUTE
" - TREMOLO PICKING     [] - ARTIFICAL HARMONIC



 0:01 - 0:12       
 GTR 1   
|-------------------|
|-------------------|
|--10-/14--12-------| 
|--x--/x---x--------|
|--8--/12--10-------|
|--------------11---|
                      
 GTR 2                 
|------------------|   /
|------------------|  /
|--7--/10---9------| / 
|--x--/x----x------|
|--5--/8----7------|
|--------------8---| 

 0:13 - 0:24
 GTR 1
|----------------------------------------------------------------------|
|----------------------------------------------------------------------|
|----------------------------------------------------------------------| 
|---------------------------------------------------15-15-----11--11---|
|--8h12(x10)--12h15(x5)--10h13(x5)------------------x--x------x---x----|
|-----------------------------------11h14(x10)---0--12-12--0--8---8----|
                                                 *         *
                                                                both x2
 GTR 2
|----------------------------------------------------------------------|
|----------------------------------------------------------------------|
|----------------------------------------------------------------------| 
|----------------------------------------------------4-4-------1---1---|
|--5h8(x10)---8h12(x5)----7h10(x5)-------------------4-4-------1---1---|
|------------------------------------8h11(x10)---0---4-4----0--1---1---| 
                                                 *          *
 0:25 - 0:26
 GTR 1
|-------------------|
|-------------------|
|-------------------| 
|-------------------|
|-------------------|
|--0--(dive bomb)---| 

 0:27 - 0:39
 GTR 1
|------------------------------------------------------|
|------------------------------------------------------|
|------------------------------------------------------|
|------------------------------------------------------|
|---------------12-----11---8---8---8------------------|
|--0-0-0-12-0-0----0-0----0---0---0---0-0-0-11-12-14---|
   * * *    * *    * *    *   *   *   * * *

 GTR 2
|-----------------------------------------------------|
|-----------------------------------------------------|
|-----------------------------------------------------|
|--0-0-0----------------------------------------------|
|--0-0-0----------------------------------------------|
|--0-0-0------------------0-----------0-0-0-0-0-0-0---|
   * * *                  *           * * * * * * *   
                                                        
                                                         both sections x2
 GTR 1                                                  /   
|------------------------------------------------|
|------------------------------------------------|
|------------------------------------------------|
|----------------------------15--15-----11--11---|
|---------------12-----11----x---x------x---x----|
|--0-0-0-12-0-0----0-0----0--12--12--0--8---8----|
   * * *    * *    * *    *          *

  GTR 2
|------------------------------------------------|
|------------------------------------------------|
|------------------------------------------------|
|-----------------------------4--4-------1---1---|
|-----------------------------4--4-------1---1---|
|--0-0-0------------------0---4--4---0---1---1---|
   * * *                  *          *

 0:40 - 0:52
 GTR 1
|-----------------------------------------------------------------------|
|-----------------------------------------------------------------------|
|----------------------------------------------------------------[10]---|
|--0-0-0-0-----0---------0-0-0-0-0-0-0-0----------15--15-----11---------|
|--0-0-0-0-----0---------0-0-0-0-0-0-0-0----------x---x------x----------|
|--0-0-0-0-----0---------0-0-0-0-0-0-0-0-------0--12--12--0--8----------|
   * * * *     *         * * * * * * * *       *          *
                                                                both x2
 GTR 2
|-----------------------------------------------------------------------|
|-----------------------------------------------------------------------|
|----------------------------------------------------------------[6]----|
|--0-0-0-0-----0---------0-0-0-0-0-0-0-0----------4---4-------1---------|
|--0-0-0-0-----0---------0-0-0-0-0-0-0-0----------4---4-------1---------|
|--0-0-0-0-----0---------0-0-0-0-0-0-0-0-------0--4---4---0---1---------|
   * * * *     *         * * * * * * * *       *          *

 0:53 - 0:56
 GTR 1
|----------------------------|
|----------------------------|
|----------------------------| 
|-0-0-0-0--------------------|
|-0-0-0-0--------------------|
|-0-0-0-0----0-(dive bomb)---| 
  * * * *

 0:57 - 1:16
 GTR 1
|-------------------------------------------------------------------------|
|-------------------------------------------------------------------------|
|------------------------------------------------------------------[10]---| 
|---------------------------------------------------15--15------11--------|
|--5h8(x10)---8h12(x5)----7h10(x5)------------------x---x-------x---------|
|------------------------------------8h11(x10)---0--12--12---0--8---------| 
                                                 *           *
                                                                both x2
 GTR 2                
|------------------------------------------------------------------------|
|------------------------------------------------------------------------|
|------------------------------------------------------------------[6]---|
|--0-0-0-0-----0---------0-0-0-0-0-0-0-0-------------4--4--------1-------|
|--0-0-0-0-----0---------0-0-0-0-0-0-0-0-------------4--4--------1-------|
|--0-0-0-0-----0---------0-0-0-0-0-0-0-0---------0---4--4----0---1-------|
   * * * *     *         * * * * * * * *         *           *


    End =]

hope u like it!!!

- jonathan

ĂŽnscrie-te la newsletter


Like us on Facebook