Tell Slater Not To Wash His Dick Tab - Bring Me the Horizon






Artist: Bring Me The Horizon
Song Title: Tell Slater Not To Wash His Dick
Album: Count Your Blessings

Tabbed By: Katazuki M. (Octavius)

Tuning: Drop C

Yeah Yeah Yeah i know that the song is in Drop B. Okay? I play a RR3 with a floating
and i dont feel like adjusting my guitar for an hour just to tune it to B. Screw that. If
are any kind of guitarist then you can pretty much adjust it to fit B from C its only 
step. figure it out!

--------------------------------------------------|
--------------------------------------------------|
-*3^----------201917191816171614151413141312131210|
----*3^---*3^-------------------------------------|
-------*3v----------------------------------------|
--------------------------------------------------|

--------------------------------------------------|
--------------------------------------------------|
121110--------------------------------------------|
------18171517161417161413121012119121191091097---|
--------------------------------------------------|
--------------------------------------------------|

*during this solo some notes are played twice like (-1212111010) and such. Im really
and this takes forever so just figure it out and play it a few times through...you'll get
hang of it.

--------------------------------------------------|
--------------------------------------------------|
--------------------------------------------------|
----------------7-5-3-5---------------------------|
-5-----5-7-3------------3--5--3-5-3-2-------------|
--0000-------00----------00-00--------------------|
  ....       ..          .. ..

--------------------------------------------------|
--------------------------------------------------|
--------------------------------------------------|
----------------7-5-3-5-----------------5-3-1-3---| x4
-5-----5-7-3------------3--5--3-5-3-2-4-----------|
--0000-------00----------00-00--------------------|
  ....       ..          .. ..

--------------------------------------------------|
--------------------------------------------------|
--------------------------------------------------|
--------------------------------------------------|
-5----5-7----7-9----11-9--------------------------|
--0000---7777---9999----111111111111--------------|
  ....   ....   ....    . . . . . .

--------------------------------------------------|
--------------------------------------------------|
--------------------------------------------------|
--------------------------------------------------|
-5----5-7----7-9----11-12-11-9-7-7-5-5-3----------|
--0000---7777---9999------------------------------|
  ....   ....   ....

--------------------------------------------------|
--------------------------------------------------|
--------------------------------------------------|
----------------7-5-3-5-----------------5-3-1-3---| x2
-5-----5-7-3------------3--5--3-5-3-2-4-----------|
--0000-------00----------00-00--------------------|
  ....       ..          .. ..

--------------------------------------------------|
--------------------------------------------------|
--------------------------------------------------|
--------------------------------------------------|
-5----5-7----7-9----11-9--------------------------|
--0000---7777---9999----111111111111--------------|
  ....   ....   ....    . . . . . .

--------------------------------------------------|
--------------------------------------------------|
--------------------------------------------------|
--------------------------------------------------|
-5----5-7----7-9----11-12-11-9-7-7-5-5-3----------|
--0000---7777---9999------------------------------|
  ....   ....   ....

--------------------------------------------------|
--------------------------------------------------|
--------------------------------------------------|
--------------------------------------------------|
-5----5-7----7-9----11-9--------------------------|
--0000---7777---9999----111111111111--------------|
  ....   ....   ....    . . . . . .

--------------------------------------------------|
--------------------------------------------------|
--------------------------------------------------|
--------------------------------------------------|
-5----5-7----7-9----11-12-11-9-7-7-5-5-3----------|
--0000---7777---9999------------------------------|
  ....   ....   ....

--------------------------------------------------|
--------------------------------------------------|
-----3-----3-----4-----4--------------------------|
-3-5---3-5---3-5---3-5---3-5-2-3-5-2-3-5-2-3-5-2--|
--------------------------------------------------|
--------------------------------------------------|

--------------------------------------------------|
--------------------------------------------------|
-----3-----3-----4-----4------7-5-7-3-5-3------7-5|
-3-5---3-5---3-5---3-5----------------------------|
--------------------------------------------------|
-------------------------0000-------------0000----|
                         ....             ....

--------------------------------------------------|
--------------------------------------------------|
-7-3-5-3------------------------------------------|
--------------------------------------------------|
--------------------------------------------------|
--------------------------------------------------|

--------------------------------------------------|
--------------------------------------------------|
-----3-----3-----4-----4--------------------------|
-3-5---3-5---3-5---3-5---3-5-2-3-5-2-3-5-2-3-5-2--|
--------------------------------------------------|
--------------------------------------------------|

--------------------------------------------------|
--------------------------------------------------|
-----3-----3-----4-----4------7-5-7-3-5-3------7-5|
-3-5---3-5---3-5---3-5----------------------------|
--------------------------------------------------|
-------------------------0000-------------0000----|
                         ....             ....

--------------------------------------------------|
--------------------------------------------------|
-7-3-5-3------------------------------------------|
--------------------------------------------------|
--------------------------------------------------|
--------------------------------------------------|


--------------------------------------------------|
--------------------------------------------------|
-7-5-3-7-5-3--------------------------------------|
-------------7-5-3-7-5-3------7-5-7-3-5-3------7-5|
--------------------------------------------------|
-------------------------0000-------------0000----|
                         ....             ....

--------------------------------------------------|
--------------------------------------------------|
-7-3-5-3------------------------------------------|
--------------------------------------------------|
--------------------------------------------------|
--------------------------------------------------|

--------------------------------------------------|
--------------------------------------------------|
-7-5-3-7-5-3--------------------------------------|
-------------7-5-3-7-5-3------7-5-7-3-5-3------7-5|
--------------------------------------------------|
-------------------------0000-------------0000----|
                         ....             ....

-----------17-------------------------------------|
---------15--15---------------15------17----------|
-7-3-5-3-------1715--------17---------------------|
--------------------------------------------------|
--------------------------------------------------|
--------------------------------------------------|


--------------------------------------------------|
--------------------------------------------------|
--------------------------------------------------|
-0~-----1-3-1-0-0-0-1-3--------------1/3333111---|
-0~-----1-3-1-0-0-0-1-3--------------1/3333111---|
-0~-----1-3-1-0-0-0-1-3-00--00000000-1/3333111---|
        . . . .   .     ..  ........

--------------------------------------------------|
--------------------------------------------------|
--------------------------------------------------|
-0~-----1-3-1-0-0-0-1-3--------------111111-------|
-0~-----1-3-1-0-0-0-1-3--------------111111-*3----|
-0~-----1-3-1-0-0-0-1-3-00--00000000-111111----0--|
        . . . .   .     ..  ........           .


      !!!!!!!!!!!!!MOVE!!!!!!!!!!!!!!!!

--------------------------------------------------|
--------------------------------------------------|
--------------------------------------------------|
-----------1-3-1-0-0-0-1-3--------------1/3333111|
-----------1-3-1-0-0-0-1-3--------------1/3333111|
-00--0000001-3-1-0-0-0-1-3-00--00000000-1/3333111|
 ..  ....... . . .   .     ..  ........

--------------------------------------------------|
--------------------------------------------------|
--------------------------------------------------|
-----------1-3-1-0-0-0-1-3--------------111111----|
-----------1-3-1-0-0-0-1-3--------------111111-*3-|
-00--0000001-3-1-0-0-0-1-3-00--00000000-111111----|
 ..  ....... . . .   .     ..  ........

--------------------------------------------------|
--------------------------------------------------|
--------------------------------------------------|
-----------1-3-1-0-0-0-1-3--------------1/3333111|
-----------1-3-1-0-0-0-1-3--------------1/3333111|
-00--0000001-3-1-0-0-0-1-3-00--00000000-1/3333111|
 ..  ....... . . .   .     ..  ........

--------------------------------------------------|
--------------------------------------------------|
--------------------------------------------------|
-------------1-----3------4-----1-----------------|
-------------1-----3------4-----1-----------------|
-00--0000000-1-----3------4-----1-----------------|
 ..  ....... .     .      .     .

--------------------------------------------------|
--------------------------------------------------|
--------------------------------------------------|
-----------1-3-1-0-0-0-1-3--------------1/3333111|
-----------1-3-1-0-0-0-1-3--------------1/3333111|
-00--0000001-3-1-0-0-0-1-3-00--00000000-1/3333111|
 ..  ....... . . .   .     ..  ........

--------------------------------------------------|
--------------------------------------------------|
--------------------------------------------------|
-----------1-3-1-0-0-0-1-3--------------111111----|
-----------1-3-1-0-0-0-1-3--------------111111-*3-|
-00--0000001-3-1-0-0-0-1-3-00--00000000-111111----|
 ..  ....... . . .   .     ..  ........


----9999999999991111111111111112121313131313------|
--------------------------------------------121212|
--------------------------------------------------|
--------------------------------------------------|
--------------------------------------------------|
-00-----------------------------------------------|
 ..

--------171717171717161616161699999999999999999999|
12121212------------------------------------------|
--------------------------------------------------|
--------------------------------------------------|
--------------------------------------------------|
--------------------------------------------------|

99999999999999991111111111111112121313131313------|
--------------------------------------------121212|
--------------------------------------------------|
--------------------------------------------------|
--------------------------------------------------|
--------------------------------------------------|


--------171717171717161616161699999999999999999999|
12121212------------------------------------------|
--------------------------------------------------|
--------------------------------------------------|
--------------------------------------------------|
--------------------------------------------------|

99999999999999991111111111111112121313131313------|
--------------------------------------------------|
--------------------------------------------------|
--------------------------------------------------|
--------------------------------------------------|
--------------------------------------------------|


* and there you have it. the end part has the right notes but the timing is a bit off
should be able to figure out when to switch from like 12121212121212 to 1313131313131313
what not. and the 1111111 are elevens duh!

hope you enjoy!

. palm mute
* pich harmonic (in the begining i use natural harmonics)
/ slide down the neck
 slide up the neck
^ pull up on whammy
v push down on whammy

p.s. sorry its so long but i dont really know how to do the whole x4 and what not thing

ĂŽnscrie-te la newsletter


Join the ranks ! LIKE us on Facebook