Born In 5 Bass Tab - BRUCE DICKINSON






BORN IN '58 Bass Tablature - From the Album "Tattoed Millionaire"

Transcribed by Nilton Neri da Silva from Brazil
E-mail me at nilton@deca.ufrgs.br


BORN IN '58 (Bruce Dickinson / J. Gers)

G-------------------|
D------------5-4-2--|
A------2/3-5--------|
E----3--------------|

G---------------------------------------------------------------------|
D---------------------------------------------------------------------|
A---------------------------------3-3-3-3-3-3-3-----------------------|
E--3-3-3-3-3-3-3-2-0-0-0-0-0-0-0-0-------------3-3-3-3-3-3-3-3-0-0-2-3|
   BORN IN ..       '58 ...             TO DATE ... AROUND WHO..            AND DIED ...

G---------------------------|
D---------------------------|
A-------5-3-------7-5---3---|
E-0-0/3-----0-0/3-----------|
JUSTICE AND LIBERTY...


In the end play 3 times this

G-------------------|-------------12-11-9--------|
D-------------------|-----9/10-12----------------|
A------2/3-5-10-9 7-|-/10------------------------|
E----3--------------|----------------------------|

and at last play this eighth

G-------------12-11-9--------|
D-----9/10-12----------------|
A--/10-----------------------|
E----------------------------|

All the song is basicly this.

Well this is my first tablature, so if are there any mistakes take it easy.

Ps. Some Body please tell me what's the name of Seteve Harris Bass Technique. I would like to learn that. 
me a e-mail.






Like us on Facebook