Gypsy Road Tab - BRUCE DICKINSON






Bruce Dickenson
Gypsy Road

Riff1. Intro & interlude part: play with a quiet effect
1----------2----------5---------3------------------------------------|
2------2-3--------2-3-------0-1--------------------------------------|
3-----------------------------------------0-------(x2)---------------|
4---0-----------------------------------4----------------------------|
5--------------2---------0------------2------------------------------|
6-----------------------------------0--------------------------------|

Riff2. Strophes: play with a quiet effect
1------3-2----------0----------0-------------------------------------|
2----3-----3------3---3------3---3-----------------------------------|
3------------2----------0----------0------0-----0--------------------|
4--0------------------------------------3-----5----------------------|
5---------------3----------2----------1-----3------------------------|
6--------------------------------------------------------------------|

Riff3. "Gypsy road...": turn on the overdrive
1--------------------------------------------------------------------|
2---7--5-----5--7----------------------------------------------------|
3---7--5--4--5--7----------------------------------------------------|
4---7--5--5--5--7----------------------------------------------------|
5---5--3--5--3--5----------------------------------------------------|
6---------3----------------------------------------------------------|

Riff3x. Background acoustic guitar on Riff3
     > <      ><  >   ><  >   (<   (>)
1----2--------0---------3-----------------------(0)------------------|
2----3--------1---------3-----------------------(1)------------------|
3----2--------0---------0-----------------------(0)------------------|
4----0--------2---------0-----------------------(2)------------------|
5-------------3---------1-----------------------(3)------------------|
6-------------3---------3-----------------------(3)------------------|
                                   *1           *2
Solo (*3) Slide and a bit of overdrive
1--------------------------------------------------------------------|
2--3/15--1312-1312-10-87-87-7-7--------------------------------|
3--------------------------------7-7--------------------------------|
4--------------------------------7-7--------------------------------|
5--------------------------------------------------------------------|
6--------------------------------------------------------------------|

1-------1514-15.-17.-1514------------------------------------------|
2--3/15---------------------15.-1312--------------------------------|
3--------------------------------------------------------------------|
4--------------------------------------------------------------------|
5--------------------------------------------------------------------|
6--------------------------------------------------------------------|

1------1715-13/15-14/15---------------------------------------------|
2--/15-------------------151312-(12)-------------------------------|
3----------------------------------12--------------------------------|
4--------------------------------------------------------------------|
5--------------------------------------------------------------------|
6--------------------------------------------------------------------|

1------15-14-15-17//22-(22)\--------------------------------------|
2--/15--------------------------------------------------------------|
3-------------------------------------------------------------------|
4-------------------------------------------------------------------|
5-------------------------------------------------------------------|
6-------------------------------------------------------------------|

Final solo in background. Single guitar and then coupled guitars=20
with slide (*4)
1---------------------1210-1210-8-7--------------------------------|
2---/(2)-/-7--5--0--87---87---5-3--------------------------------|
3---/(2)-/-7--5--0-------------------------------------------------|
4---/(2)-/-7--5--0-------------------------------------------------|
5--------------------------------------------------------------------|
6--------------------------------------------------------------------|






Like us on Facebook