The Chemical Wedding Tab - BRUCE DICKINSON






This file was taken from the " SavatagE & Iron Maiden Israeli Home Page " ,
AddresS : Http://www.geocities.com/SunsetStrip/Towers/2260        .

For MORE NEW NEVER BEFORE SEEN TABS of this bands , check out the place !!!


chemical wedding:
trancribed by Wilson Araujo (cito0@geocities.com)
(the bars are only separation things, you can figure out the rythm)

EVERYBODY WHO DOWNLOADED THIS TAB LIKES BRUCE, SO WHY
YOU DON'T TRY TO TAB 1 MUSIC FROM HIM AND PUT ON THE NET?
THEM WE ALL CAN PLAY ALL MUSICS JUST f*****g OUR HEADS TO EXTRACT 
ONE...I THINK YOU ALL CAN DO IT...

for corrections, please send me an email please  
 
intro:                                                        |1,2,3     |4   
|-------------------------------------------------------------|----------|-----|
|-------------------------------------------------------------|----------|-----|
|-9-9-9-9-9-9-9-9-9-9-9-9--7-7--6-6--5-5-5-5-5-5-5-5-5-5-5-5--|-7-7--7-7-|-8-8-|
|-9-9-9-9-9-9-9-9-9-9-9-9--7-7--6-6--5-5-5-5-5-5-5-5-5-5-5-5--|-7-7--7-7-|-8-8-|
|-7-7-7-7-7-7-7-7-7-7-7-7--5-5--4-4--3-3-3-3-3-3-3-3-3-3-3-3--|-5-5--5-5-|-6-6-|
|-------------------------------------------------------------|----------|-----|


verse:
now happy is the humam soul not enslaved by dull control
|-------------0----------------------------------------------------
|-------0---------0-------0----------------------------------------
|----0-----0----------2--------------0----3---0--------------------
|--2-------------------------------2----2---------2----------------
|-------------------------------3---------------------3------------
|-----------------------------------------------------------------4x

chorus:
   and  so we lay,  we lay in the same grave our chemical wedding day
|-------------------------------------------------------------------------------
|-------------------------------------------------------------------------------
|--9----7---------------5----------------9----------7--------9------------------
|--9----7------5--------5----------------9----------7--------9------------------
|--7----5------5--------3----------------7----------5--------7------------------
|--------------3----------------------------------------------------------------

|1                           |2
|----------------------------|--------------------------------------------------
|---------------2------------|--------------------------------------------------
|--5---7-7--5---2---7---9~---|--(9)~~-------------------------------------------
|--5---7-7--5---2---7---9~---|--(9)~~-------------------------------------------
|--3---5-5--3---4---5---7~---|--(7)~~-------------------------------------------
|----------------------------|--------------------------------------------------
( ta  nana ta   ta  na  naaaa)if you cound't get this one
play intro(only twice)
play verse 

interlude:
     and all the lighthouses  their beams converge to guide me home
-------------------------------------------------------------------------------
-------------------------------------------------------------------------------
----7-----------------5--------------7------------------5----------------------
----7-----------------5--------------7------------------5----------------------
----5-----------------3--------------5------------------3----------------------
-------------------------------------------------------------------------------


play chorus

solo:(here, the bars do count time, each one means 2 times in 4/4 )
i just wrote the notes once but you strike them all the time
|----|------|---|------6---9---12-----|-----|-----|----|---------|----|---2----
|----|-8----|-8-|--9---5---8---11-----|-----|-7---|----|---------|----|---3----
|----|-5----|-9-|--6---6---9---12-----|-7---|-4---|-5--|-4--4----|----|---2----
|-7--|-7----|-9-|--8---5---8---11-----|-7---|-6---|-5--|-2--4----|-2--|-2------
|-7--|-6----|-7-|--7------------------|-5---|-5---|-3--|-2--2----|-2--|-2------
|-5--|------|---|---------------------|-----|-----|----|---------|-0--|--------
                     strike only once the low E then you take a rest  /
                    and you play the last 2 notes going straight ahead to chorus 

play chorus 4 times then you're f*****g done
but i know that you said now:
o f**k another internet tab that don't has the f*****g solo that
i want to play...here it is...

solo:
8-8-8-8--------------------------------|8-8-8-8--------------------------------
-------10-10-10-10---------------------|--------10-10-10-10--------------------
-------------------9-9-9-9-------------|--------------------8-8-8-8------------
---------------------------10-10-10-10-|----------------------------10-10-10-10
---------------------------------------|---------------------------------------
---------------------------------------|---------------------------------------

-7-7-7-7-------------------------|
---------8-8-8-8-----------------|
-----------------9-9-9-9---------|
-------------------------9-9-9-9-| 
---------------------------------|
---------------------------------|

play in sextuplets
--12-9----9-----|--9----------------|-------------------|----------------------
-------11--11-8-|---11-8--11---8----|--11--8-----8------|--8-------------------
----------------|----------------9--|--------9-----9----|----9---9-------------
----------------|-------------------|----------------11-|-----11---11--8-------
----------------|-------------------|-------------------|----------------------
----------------|-------------------|-------------------|----------------------
                           sextuplets
|-10---------------10-----|-10-7-7-----|-7-----------|------------|------------
|----10--7---7--10----10--|-----9--9-6-|---9-6-9-6---|-9-6---6----|-6----------
|0---------7-------------0|------------|-----------7-|-----7---7--|---7--7-----
|0-----------------------0|------------|-------------|-----------9|-----9--9-6-
|-------------------------|------------|-------------|------------|------------
|-------------------------|------------|-------------|------------|------------

                       triplets
|--8-------------8----|--7---------|---8-------|-------------------------------
|----8--5---5--8---8--|----8--5----|-----8--4--|--5~~~~------------------------
|0--------5----------0|------------|-----------|-------------------------------
|0-------------------0|--(4x)------|-----(4x)--|-------------------------------
|---------------------|------------|-----------|---------end of solo-----------
|---------------------|------------|-----------|-------------------------------






Like us on Facebook