Brujerizmo Bass Tab - Brujeria






Song: Brujerizmo
Album: Brujerizmo
Band: Brujeria
Transcribed: The Great Southern Trendkill
E-mail: fromadyingfetus@aol.com

INSTRUMENT:FOUR STRING BASS
Tuning: Drop D

Intro:
  PLAY ALL THIS 2X'S (AFTER GUITAR PLAYS ONCE)
G|-------------------------------------------------------------------------------------------|
D|-------------------------------------------------------------------------------------------|
A|-------------------------------------------------------------------------------------------|
D|-0-2-3-0--0-2-0-0-2-3-2-0-2-3-0--0-2-0-0-2-3-2-0-2-3-0--0-2-0-0-2-3-2--0-0-0-0-0-0-0-0-0-0-|

Verse:
G|--------------------------|--------------------------|
D|--------------------------|--------------------------|
A|--------------------------|--------------------------|
D|--0-0-0-5-0--0-7-0-8-0-7--|--0-0-0-5-0---0-7-0-6-0-5-| THEN PLAY BOTTOM


   PLAY THIS 3X'SPLAY THIS ONCE
G|--------------------------|----------------------|
D|--------------------------|----------------------|
A|--------------------------|----------------------|
D|--0-0-0-5-0--0-7-0-8-0-7--|--0-0-0-5-0--0-7-6-5--|

Chorus:
  PLAY ALL THIS 2X'S
G|-------------------------------------------------------------------------------------------|
D|-------------------------------------------------------------------------------------------|
A|-------------------------------------------------------------------------------------------|
D|-0-2-3-0--0-2-0-0-2-3-2-0-2-3-0--0-2-0-0-2-3-2-0-2-3-0--0-2-0-0-2-3-2--0-0-0-0-0-0-0-0-0-0-|

SILENT(GUITAR)

Verse:

   PLAY THIS 3X'S      PLAY THIS ONCE
G|--------------------------|--------------------------|
D|--------------------------|--------------------------|
A|--------------------------|--------------------------|
D|--0-0-0-5-0--0-7-0-8-0-7--|--0-0-0-5-0--0-7-0-6-0-5--| THEN PLAY BOTTOM


   PLAY THIS 3X'SPLAY THIS ONCE
G|--------------------------|----------------------|
D|--------------------------|----------------------|
A|--------------------------|----------------------|
D|--0-0-0-5-0--0-7-0-8-0-7--|--0-0-0-5-0--0-7-6-5--|

Chorus:
    PLAY ALL THIS 2X'S 
G|-------------------------------------------------------------------------------------------|
D|-------------------------------------------------------------------------------------------|
A|-------------------------------------------------------------------------------------------|
D|-0-2-3-0--0-2-0-0-2-3-2-0-2-3-0--0-2-0-0-2-3-2-0-2-3-0--0-2-0-0-2-3-2--0-0-0-0-0-0-0-0-0-0-|

Fill: 
  PLAY THIS 4X'S
G|-----------|
D|-----------|
A|-----------|
D|--0-0-5-0--|

Bridge:
  PLAY THIS 8X'S
G|-------------------------|
D|-------------------------|
A|-------------------------|
D|--0-0-5-0--0-0-9-9-9-12--|

Outro:
    PLAY ALL THIS 2X'S (AFTER GUITAR PLAYS ONCE)
G|-------------------------------------------------------------------------------------------|
D|-------------------------------------------------------------------------------------------|
A|-------------------------------------------------------------------------------------------|
D|-0-2-3-0--0-2-0-0-2-3-2-0-2-3-0--0-2-0-0-2-3-2-0-2-3-0--0-2-0-0-2-3-2--0-0-0-0-0-0-0-0-0-0-|

End:
   PLAY ONCE
G|---------| 
D|---------| 
A|---------|
D|-0-2-3-0-|

ĂŽnscrie-te la newsletter


Like us on Facebook