Colas De Rata Tab - Brujeria






Author/Artist: Brujeria
Title: colas de rata
Album: raza odiada
Transcribed by: Juan Carlos
Email: mextremist_666@yahoo.com
Tuning: low to high ( A D G C E A)

---INtro----  plAY 2x's
|-------------------------------------------|
|-------------------------------------------|
|-------------------------------------------|
|-00-4-5-6--00-4-5-6--00-4-5-6---444-5-6-4--|
|-00-4-5-6--00-4-5-6--00-4-5-6---444-5-6-4--|
|-00-4-5-6--00-4-5-6--00-4-5-6---444-5-6-4--|
  Slide

----VERSE---  PLay 4x's
|---------------------------------------------------------------------------|
|---------------------------------------------------------------------------|
|---------------------------------------------------------------------------|
|---------------------------------------------------------------------------|
|-00-4-5-6-00-4-5-6-00-4-5-6-00-4-5-6-00-4-5-6-00-4-5-6-00-4-5-6--444-5-6-4-|
|-00-4-5-6-00-4-5-6-00-4-5-6-00-4-5-6-00-4-5-6-00-4-5-6-00-4-5-6--444-5-6-4-|


----CHORUS---- PLAY 2x's

|---------------------------------------------------------------------------|
|---------------------------------------------------------------------------|
|---------------------------------------------------------------------------|
|---------------------------------------------------------------------------|
|-00-4-5-6-00-4-5-6-00-4-5-6-00-4-5-6-00-4-5-6-00-4-5-6-00-4-5-6--444-5-6-4-|
|-00-4-5-6-00-4-5-6-00-4-5-6-00-4-5-6-00-4-5-6-00-4-5-6-00-4-5-6--444-5-6-4-|


----VERSE---  PLay 4x's
|---------------------------------------------------------------------------|
|---------------------------------------------------------------------------|
|---------------------------------------------------------------------------|
|---------------------------------------------------------------------------|
|-00-4-5-6-00-4-5-6-00-4-5-6-00-4-5-6-00-4-5-6-00-4-5-6-00-4-5-6--444-5-6-4-|
|-00-4-5-6-00-4-5-6-00-4-5-6-00-4-5-6-00-4-5-6-00-4-5-6-00-4-5-6--444-5-6-4-|


SOLo BASS PART


----VERSE---  PLay 4x's
|---------------------------------------------------------------------------|
|---------------------------------------------------------------------------|
|---------------------------------------------------------------------------|
|---------------------------------------------------------------------------|
|-00-4-5-6-00-4-5-6-00-4-5-6-00-4-5-6-00-4-5-6-00-4-5-6-00-4-5-6--444-5-6-4-|
|-00-4-5-6-00-4-5-6-00-4-5-6-00-4-5-6-00-4-5-6-00-4-5-6-00-4-5-6--444-5-6-4-|


----CHORUS---- PLAY 2x's

|---------------------------------------------------------------------------|
|---------------------------------------------------------------------------|
|---------------------------------------------------------------------------|
|---------------------------------------------------------------------------|
|-00-4-5-6-00-4-5-6-00-4-5-6-00-4-5-6-00-4-5-6-00-4-5-6-00-4-5-6--444-5-6-4-|
|-00-4-5-6-00-4-5-6-00-4-5-6-00-4-5-6-00-4-5-6-00-4-5-6-00-4-5-6--444-5-6-4-|

ĂŽnscrie-te la newsletter


Like us on Facebook