Town Drunk Tab - Brunch






Guitar (D A D G B E) - 'Tom'
|-----------------|-----------------|-----------------|-----------------|
|-----------------|-----------------|-----------------|-----------------|
|-----------------|-----------------|-----------------|-----------------|
|-0-0-7-7-9-9-5-5-|-0-0-7-7-9-9-5-5-|-0-0-7-7-9-9-5-5-|-7-7-7-7-7-7-7-7-|
|-0-0-7-7-9-9-5-5-|-0-0-7-7-9-9-5-5-|-0-0-7-7-9-9-5-5-|-----------------|
|-0-0-7-7-9-9-5-5-|-0-0-7-7-9-9-5-5-|-0-0-7-7-9-9-5-5-|-----------------|
|-----------------|-----------------|-----------------|-----------------|
|-----------------|-----------------|-----------------|-----------------|
|-----------------|-----------------|-----------------|-----------------|
|-0-0-7-7-9-9-5-5-|-0-0-7-7-9-9-5-5-|-0-0-7-7-9-9-5-5-|-0-0-7-7-9-9-5-5-|
|-0-0-7-7-9-9-5-5-|-0-0-7-7-9-9-5-5-|-0-0-7-7-9-9-5-5-|-0-0-7-7-9-9-5-5-|
|-0-0-7-7-9-9-5-5-|-0-0-7-7-9-9-5-5-|-0-0-7-7-9-9-5-5-|-0-0-7-7-9-9-5-5-|
|-----------------|-----------------|-----------------|-----------------|
|-----------------|-----------------|-----------------|-----------------|
|-----------------|-----------------|-----------------|-----------------|
|-0-0-7-7-9-9-5-5-|-0-0-7-7-9-9-5-5-|-0-0-7-7-9-9-5-5-|-0-0-7-7-9-9-5-5-|
|-0-0-7-7-9-9-5-5-|-0-0-7-7-9-9-5-5-|-0-0-7-7-9-9-5-5-|-0-0-7-7-9-9-5-5-|
|-0-0-7-7-9-9-5-5-|-0-0-7-7-9-9-5-5-|-0-0-7-7-9-9-5-5-|-0-0-7-7-9-9-5-5-|
|----------------------------------------|
|----------------------------------------|
|----------------------------------------|
|-0-0-0-0-12-12-12-12-12-9-9-9-9-5-5-5-5-|
|-0-0-0-0-12-12-12-12-12-9-9-9-9-5-5-5-5-|
|-0-0-0-0-12-12-12-12-12-9-9-9-9-5-5-5-5-|
|------------------------|------------------|
|------------------------|------------------|
|------------------------|------------------|
|-0-0-0-0-12-12-12-12-12-|-9-9-9-9-7-7-7-7--|
|-0-0-0-0-12-12-12-12-12-|-9-9-9-9-7-7-7-7--|
|-0-0-0-0-12-12-12-12-12-|-9-9-9-9-7-7-7-7--|
|------------------------|-----------------|
|------------------------|-----------------|
|------------------------|-----------------|
|-0-0-0-0-12-12-12-12-12-|-7-7-7-7-5-5-5-5-|
|-0-0-0-0-12-12-12-12-12-|-7-7-7-7-5-5-5-5-|
|-0-0-0-0-12-12-12-12-12-|-7-7-7-7-5-5-5-5-|
|------------------------|-----------------|
|------------------------|-----------------|
|------------------------|-----------------|
|-0-0-0-0-12-12-12-12-12-|-5-5-5-5-7-7-7-7-|
|-0-0-0-0-12-12-12-12-12-|-5-5-5-5-7-7-7-7-|
|-0-0-0-0-12-12-12-12-12-|-5-5-5-5-7-7-7-7-|
|-----------------|-----------------|-----------------|-----------------|
|-----------------|-----------------|-----------------|-----------------|
|-----------------|-----------------|-----------------|-----------------|
|-0-0-7-7-9-9-5-5-|-0-0-7-7-9-9-5-5-|-0-0-7-7-9-9-5-5-|-0-0-7-7-9-9-5-5-|
|-0-0-7-7-9-9-5-5-|-0-0-7-7-9-9-5-5-|-0-0-7-7-9-9-5-5-|-0-0-7-7-9-9-5-5-|
|-0-0-7-7-9-9-5-5-|-0-0-7-7-9-9-5-5-|-0-0-7-7-9-9-5-5-|-0-0-7-7-9-9-5-5-|
|-----------------|-----------------|-----------------|-----------------|
|-----------------|-----------------|-----------------|-----------------|
|-----------------|-----------------|-----------------|-----------------|
|-0-0-7-7-9-9-5-5-|-0-0-7-7-9-9-5-5-|-0-0-7-7-9-9-5-5-|-0-0-7-7-9-9-5-5-|
|-0-0-7-7-9-9-5-5-|-0-0-7-7-9-9-5-5-|-0-0-7-7-9-9-5-5-|-0-0-7-7-9-9-5-5-|
|-0-0-7-7-9-9-5-5-|-0-0-7-7-9-9-5-5-|-0-0-7-7-9-9-5-5-|-0-0-7-7-9-9-5-5-|
|-----------------|-----------------|-----------------|-----------------|
|-----------------|-----------------|-----------------|-----------------|
|-----------------|-----------------|-----------------|-----------------|
|-0-0-7-7-9-9-5-5-|-0-0-7-7-9-9-5-5-|-0-0-7-7-9-9-5-5-|-0-0-7-7-9-9-5-5-|
|-0-0-7-7-9-9-5-5-|-0-0-7-7-9-9-5-5-|-0-0-7-7-9-9-5-5-|-0-0-7-7-9-9-5-5-|
|-0-0-7-7-9-9-5-5-|-0-0-7-7-9-9-5-5-|-0-0-7-7-9-9-5-5-|-0-0-7-7-9-9-5-5-|
|------------------------|-----------------|
|------------------------|-----------------|
|------------------------|-----------------|
|-0-0-0-0-12-12-12-12-12-|-9-9-9-9-5-5-5-5-|
|-0-0-0-0-12-12-12-12-12-|-9-9-9-9-5-5-5-5-|
|-0-0-0-0-12-12-12-12-12-|-9-9-9-9-5-5-5-5-|
|------------------------|-----------------|
|------------------------|-----------------|
|------------------------|-----------------|
|-0-0-0-0-12-12-12-12-12-|-9-9-9-9-7-7-7-7-|
|-0-0-0-0-12-12-12-12-12-|-9-9-9-9-7-7-7-7-|
|-0-0-0-0-12-12-12-12-12-|-9-9-9-9-7-7-7-7-|
|------------------------|-----------------|
|------------------------|-----------------|
|------------------------|-----------------|
|-0-0-0-0-12-12-12-12-12-|-7-7-7-7-5-5-5-5-|
|-0-0-0-0-12-12-12-12-12-|-7-7-7-7-5-5-5-5-|
|-0-0-0-0-12-12-12-12-12-|-7-7-7-7-5-5-5-5-|
|------------------------|-----------------|
|------------------------|-----------------|
|------------------------|-----------------|
|-0-0-0-0-12-12-12-12-12-|-5-5-5-5-7-7-7-7-|
|-0-0-0-0-12-12-12-12-12-|-5-5-5-5-7-7-7-7-|
|-0-0-0-0-12-12-12-12-12-|-5-5-5-5-7-7-7-7-|
|-----------------|-----------------|-----------------|-----------------|
|-----------------|-----------------|-----------------|-----------------|
|-----------------|-----------------|-----------------|-----------------|
|-0-0-7-7-9-9-5-5-|-0-0-7-7-9-9-5-5-|-0-0-7-7-9-9-5-5-|-0-0-7-7-9-9-5-5-|
|-0-0-7-7-9-9-5-5-|-0-0-7-7-9-9-5-5-|-0-0-7-7-9-9-5-5-|-0-0-7-7-9-9-5-5-|
|-0-0-7-7-9-9-5-5-|-0-0-7-7-9-9-5-5-|-0-0-7-7-9-9-5-5-|-0-0-7-7-9-9-5-5-|
|-----------------|---------------------|
|-----------------|---------------------|
|-----------------|---------------------|
|-2-2-2-2-2-2-2-2-|-/5-5-5-5-7-7-7-7----|
|-2-2-2-2-2-2-2-2-|-/5-5-5-5-7-7-7-7----|
|-2-2-2-2-2-2-2-2-|-/5-5-5-5-7-7-7-7----|
|------------------------|-----------------|
|------------------------|-----------------|
|------------------------|-----------------|
|-0-0-0-0-12-12-12-12-12-|-9-9-9-9-5-5-5-5-|
|-0-0-0-0-12-12-12-12-12-|-9-9-9-9-5-5-5-5-|
|-0-0-0-0-12-12-12-12-12-|-9-9-9-9-5-5-5-5-|
|------------------------|-----------------|
|------------------------|-----------------|
|------------------------|-----------------|
|-0-0-0-0-12-12-12-12-12-|-9-9-9-9-7-7-7-7-|
|-0-0-0-0-12-12-12-12-12-|-9-9-9-9-7-7-7-7-|
|-0-0-0-0-12-12-12-12-12-|-9-9-9-9-7-7-7-7-|
|------------------------|-----------------|
|------------------------|-----------------|
|------------------------|-----------------|
|-0-0-0-0-12-12-12-12-12-|-7-7-7-7-5-5-5-5-|
|-0-0-0-0-12-12-12-12-12-|-7-7-7-7-5-5-5-5-|
|-0-0-0-0-12-12-12-12-12-|-7-7-7-7-5-5-5-5-|
|------------------------|-----------------|
|------------------------|-----------------|
|------------------------|-----------------|
|-0-0-0-0-12-12-12-12-12-|-5-5-5-5-7-7-7-7-|
|-0-0-0-0-12-12-12-12-12-|-5-5-5-5-7-7-7-7-|
|-0-0-0-0-12-12-12-12-12-|-5-5-5-5-7-7-7-7-|
|-----------------|-----------------|-----------------|-----------------|
|-----------------|-----------------|-----------------|-----------------|
|-----------------|-----------------|-----------------|-----------------|
|-0-0-7-7-9-9-5-5-|-0-0-7-7-9-9-5-5-|-0-0-7-7-9-9-5-5-|-0-0-7-7-9-9-5-5-|
|-0-0-7-7-9-9-5-5-|-0-0-7-7-9-9-5-5-|-0-0-7-7-9-9-5-5-|-0-0-7-7-9-9-5-5-|
|-0-0-7-7-9-9-5-5-|-0-0-7-7-9-9-5-5-|-0-0-7-7-9-9-5-5-|-0-0-7-7-9-9-5-5-|
|------|
|------|
|------|
|-0----|
|-0----|
|-0----|






Like us on Facebook