Count On Me Tab - Bruno Mars




.:: Standard Tuning ::.
e|------|
B|------|
G|------|
D|------|
A|------|
E|------|
_____________________________________________________________________________
__________
|          |
| VERSE 1: |
|__________|
If you ever find yourself stuck in the middle of the sea...
|-----0--|    |-----0--|    |-----0--|
|-----1--|    |-----1--|    |-----0--|
|-----0--|    |-----0--|    |-----0--|
|--------|    |--------|    |--2-----|
|--3-----|    |--3-----|    |--------|
|--------|x8  |--------|x4  |--------|x4
I'll sail the world, to find you.
|-----0--|    |-----3--|    |-----1--|
|-----1--|    |-----3--|    |-----1--|
|-----2--|    |-----0--|    |-----2--|
|--------|    |--------|    |--------|
|--0-----|    |--------|    |--------|
|--------|x2  |--3-----|x2  |--1-----|x4
If you ever find yourself lost in the dark and you can't see...
|-----0--|    |-----0--|
|-----1--|    |-----0--|
|-----0--|    |-----0--|
|--------|    |--2-----|
|--3-----|    |--------|
|--------|x4  |--------|x4
I'll be the light to guide you.
|-----0--|    |-----3--|    |-----1--|
|-----1--|    |-----3--|    |-----1--|
|-----2--|    |-----0--|    |-----2--|
|--------|    |--------|    |--------|
|--0-----|    |--------|    |--------|
|--------|x2  |--3-----|x2  |--1-----|x4
PRE-CHORUS:
___________
Find out what we're made of...
|-----1--|    |-----0--|
|-----3--|    |-----0--|
|-----2--|    |-----0--|
|--0-----|    |--2-----|
|--------|    |--------|
|--------|x4  |--------|x4
When we are called to help our friends in need.
|-----1--|    |--3~--|
|-----1--|    |--3~--|
|-----2--|    |--0~--|
|--------|    |--0~--|
|--------|    |--2~--|
|--1-----|x4  |--3~--|(Strumming down once)
CHORUS:
_______
You can count on me like one, two, three -
|-----0--|    |-----0--|
|-----1--|    |-----0--|
|-----0--|    |-----0--|
|--------|    |--2-----|
|--3-----|    |--------|
|--------|x4  |--------|x4
I'll be there... And I know when I need it
|-----0--|    |-----3--|    |-----1--|
|-----1--|    |-----3--|    |-----1--|
|-----2--|    |-----0--|    |-----2--|
|--------|    |--------|    |--------|
|--0-----|    |--------|    |--------|
|--------|x2  |--3-----|x2  |--1-----|x4
I can count on you like four, three, two
|-----0--|    |-----0--|
|-----1--|    |-----0--|
|-----0--|    |-----0--|
|--------|    |--2-----|
|--3-----|    |--------|
|--------|x4  |--------|x4
And you'll be there... 'Cos that's what friends are s'posed to do, aw yeah.
|-----0--|    |-----3--|    |-----1--|
|-----1--|    |-----3--|    |-----1--|
|-----2--|    |-----0--|    |-----2--|
|--------|    |--------|    |--------|
|--0-----|    |--------|    |--------|
|--------|x2  |--3-----|x2  |--1-----|x4
Ooh ooh ooh hoo ooh...
|-----0--|    |-----0--|
|-----1--|    |-----0--|
|-----0--|    |-----0--|
|--------|    |--2-----|
|--3-----|    |--------|
|--------|x4  |--------|x4
Ooh ooh ooh hoo ooh... Yeah - yeah.
|-----0--|    |-----3--|    |-----1--|    |-----3--|
|-----1--|    |-----3--|    |-----1--|    |-----3--|
|-----2--|    |-----0--|    |-----2--|    |-----0--|
|--------|    |--------|    |--------|    |--------|
|--0-----|    |--------|    |--------|    |--------|
|--------|x2  |--3-----|x2  |--1-----|x2  |--3-----|x2
_____________________________________________________________________________
__________
|          |
| VERSE 2: |
|__________|
If you're tossin' and you're turnin' and you just can't fall asleep...
|-----0--|    |-----0--|
|-----1--|    |-----0--|
|-----0--|    |-----0--|
|--------|    |--2-----|
|--3-----|    |--------|
|--------|x4  |--------|x4
I'll sing a song, beside you.
|-----0--|    |-----3--|    |-----1--|
|-----1--|    |-----3--|    |-----1--|
|-----2--|    |-----0--|    |-----2--|
|--------|    |--------|    |--------|
|--0-----|    |--------|    |--------|
|--------|x2  |--3-----|x2  |--1-----|x4
And if you ever forget how much you really mean to me...
|-----0--|    |-----0--|
|-----1--|    |-----0--|
|-----0--|    |-----0--|
|--------|    |--2-----|
|--3-----|    |--------|
|--------|x4  |--------|x4
Everyday I will, remind you - oh~
|-----0--|    |-----3--|    |-----1--|
|-----1--|    |-----3--|    |-----1--|
|-----2--|    |-----0--|    |-----2--|
|--------|    |--------|    |--------|
|--0-----|    |--------|    |--------|
|--------|x2  |--3-----|x2  |--1-----|x4
PRE-CHORUS:
___________
Find out what we're made of...
|-----1--|    |-----0--|
|-----3--|    |-----0--|
|-----2--|    |-----0--|
|--0-----|    |--2-----|
|--------|    |--------|
|--------|x4  |--------|x4
When we are called to help our friends in need.
|-----1--|    |--3~--|
|-----1--|    |--3~--|
|-----2--|    |--0~--|
|--------|    |--0~--|
|--------|    |--2~--|
|--1-----|x4  |--3~--|(Strumming down once)
CHORUS:
_______
You can count on me like one, two, three -
|-----0--|    |-----0--|
|-----1--|    |-----0--|
|-----0--|    |-----0--|
|--------|    |--2-----|
|--3-----|    |--------|
|--------|x4  |--------|x4
I'll be there... And I know when I need it
|-----0--|    |-----3--|    |-----1--|
|-----1--|    |-----3--|    |-----1--|
|-----2--|    |-----0--|    |-----2--|
|--------|    |--------|    |--------|
|--0-----|    |--------|    |--------|
|--------|x2  |--3-----|x2  |--1-----|x4
I can count on you like four, three, two
|-----0--|    |-----0--|
|-----1--|    |-----0--|
|-----0--|    |-----0--|
|--------|    |--2-----|
|--3-----|    |--------|
|--------|x4  |--------|x4
And you'll be there... 'Cos that's what friends are s'posed to do, aw yeah.
|-----0--|    |-----3--|    |-----1--|
|-----1--|    |-----3--|    |-----1--|
|-----2--|    |-----0--|    |-----2--|
|--------|    |--------|    |--------|
|--0-----|    |--------|    |--------|
|--------|x2  |--3-----|x2  |--1-----|x4
Ooh ooh ooh hoo ooh...
|-----0--|    |-----0--|
|-----1--|    |-----0--|
|-----0--|    |-----0--|
|--------|    |--2-----|
|--3-----|    |--------|
|--------|x4  |--------|x4
Ooh ooh ooh hoo ooh... Yeah - yeah.
|-----0--|    |-----3--|    |-----1--|    |-----3--|
|-----1--|    |-----3--|    |-----1--|    |-----3--|
|-----2--|    |-----0--|    |-----2--|    |-----0--|
|--------|    |--------|    |--------|    |--------|
|--0-----|    |--------|    |--------|    |--------|
|--------|x2  |--3-----|x2  |--1-----|x2  |--3-----|x2
_____________________________________________________________________________
__________
|          |
| BRIDGE:  |
|__________|
You'll always have my shoulder when you cry - yeah~
|-----1--|    |--------|    |--------|    |--------|
|--------|    |-----0--|    |-----1--|    |-----0--|
|-----2--|    |-----0--|    |-----2--|    |-----0--|
|--0-----|    |--2-----|    |-----2--|    |--------|
|--------|    |--------|    |--0-----|    |--------|
|--------|x4  |--------|x4  |--------|x4  |--3-----|x4
I'll never let go, never say good-bye, you know you can -
|-----1--|    |--------|    |--------|    |-----|
|--------|    |-----0--|    |-----1--|    |--0--|
|-----2--|    |-----0--|    |-----2--|    |--0--|
|--0-----|    |--2-----|    |--------|    |-----|
|--------|    |--------|    |--------|    |-----|
|--------|x4  |--------|x4  |--1-----|x4  |--3--|(Pluck these strings)
CHORUS:
_______
- count on me like one, two, three -
|-----0--|    |-----0--|
|-----1--|    |-----0--|
|-----0--|    |-----0--|
|--------|    |--2-----|
|--3-----|    |--------|
|--------|x4  |--------|x4
I'll be there... And I know when I need it
|-----0--|    |-----3--|    |-----1--|
|-----1--|    |-----3--|    |-----1--|
|-----2--|    |-----0--|    |-----2--|
|--------|    |--------|    |--------|
|--0-----|    |--------|    |--------|
|--------|x2  |--3-----|x2  |--1-----|x4
I can count on you like four, three, two
|-----0--|    |-----0--|
|-----1--|    |-----0--|
|-----0--|    |-----0--|
|--------|    |--2-----|
|--3-----|    |--------|
|--------|x4  |--------|x4
And you'll be there... 'Cos that's what friends are s'posed to do, aw yeah.
|-----0--|    |-----3--|    |-----1--|
|-----1--|    |-----3--|    |-----1--|
|-----2--|    |-----0--|    |-----2--|
|--------|    |--------|    |--------|
|--0-----|    |--------|    |--------|
|--------|x2  |--3-----|x2  |--1-----|x4
Ooh ooh ooh hoo ooh...
|-----0--|    |-----0--|
|-----1--|    |-----0--|
|-----0--|    |-----0--|
|--------|    |--2-----|
|--3-----|    |--------|
|--------|x4  |--------|x4
__________
|          |
| OUTRO:   |
|__________|
Ooh ooh ooh hoo ooh... You can count on me 'cos I can count o-on you~...
|-----0--|    |-----3--|    |-----1--|    |--0~--|
|-----1--|    |-----3--|    |-----1--|    |--1~--|
|-----2--|    |-----0--|    |-----2--|    |--0~--|
|--------|    |--------|    |--------|    |--2~--|
|--0-----|    |--------|    |--------|    |--3~--|
|--------|x2  |--3-----|x2  |--1-----|x4  |------|(Strum down once)
_____________________________________________________________________________
Again... this is my first tab, so I apologize if it doesn't appear to your liking 
or otherwise, seemingly correct, but it really was - 
"playing it by ear".
ĂŽnscrie-te la newsletter


Join the ranks ! LIKE us on Facebook