Introduction Tab - Buried Inside




Band:  BURIED INSIDE
Album: Chronoclast
Song:  Introduction

Transcribed by: Justin Brabon
Email: glcometdude@hotmail.com

Tuning:
strings 1-5 - 1 step down
string    6 - 2 steps down

Keys:
  x  - mute
  "  - tremelo pick

Note - this tab is condensed into basically one track throughout, unless there
       are too many layers of guitars such as for the intro. not all the
       guitar tracks have been transcribed, as this tab is more for
       playability then just getting each and every layer down.


INTRO:
(Gtr 1 - light distortion)
|-------------------------------------------------------------|
|-------------------------------------------------------------|
|-------------------------------------------------------------|
|-8-----------8-8---------------3-----------3-3---------------|
|-5-----------5-5---------------5-----------5-5---------------|
|------0-0-----------0-0-------------0-0-----------0-0--------| 6x

(Gtr 2 - light distortion - come in after Gtr 1 plays once)
|-------------------------------------------------------------|
|-18----------18--------18------17----13----17----13--17--13--|
|-------15----------15------15--------------------------------|
|-------------------------------------------------------------|
|-------------------------------------------------------------|
|-------------------------------------------------------------|

 -------------------------------------------------------------|
 -15----------15--------15------17----------17--------17------|
 -------14----------14------14--------14----------14------14--|
 -------------------------------------------------------------|
 -------------------------------------------------------------|
 -------------------------------------------------------------|

 -------------------------------------------------------------|
 -18----------18--------18------17----13----17----13--17--13--|
 -------15----------15------15--------------------------------|
 -------------------------------------------------------------|
 -------------------------------------------------------------|
 -------------------------------------------------------------|

 -------------------------------------------------------------|
 -15----------------14----------10----------------------------|
 --x-----------------x-----------x----------------------------|
 -12...-------------11...--------7...-------------------------|
 -------------------------------------------------------------|
 -------------------------------------------------------------|

 ---------------------------------------------------------------------------|
 ---------------------------------------------------------------------------|
 -10-----------------------------7------7---7------7---7------7---7-----7---|
 --x-----------------------------x------x---x------x---x------x---x-----x---|
 --8...--------------------------5------5---5------5---5------5---5-----5---|
 -----------------------------------0-0---0----0-0---0----0-0---0---0-0---0-|


REST OF SONG: (heavy distortion)

|------------------------------------------------------------------------------|
|------------------------------------------------------------------------------|
|-7----7-7-5-5-3-3----3-3-2-2-7-7----7-7-2-2-3-3----3-3-2-2-7-7----7-7-5-5-3-3-|
|-x----x-x-x-x-x-x----x-x-x-x-5-5----5-5-0-0-1-1----1-1-0-0-x-x----x-x-x-x-x-x-|
|-5----5-5-3-3-1-1----1-1-0-0-5-5----5-5-0-0-1-1----1-1-0-0-5-5----5-5-3-3-1-1-|
|-0---------------------------5-5----5-5-0-0-1-1----1-1-0-0--------------------|

 --------------------------------------------------------------------|
 ------------------------------------------10-10----10-10-8-8-6-6----|
 ----3-3-2-2-7-7----7-7-2-2-3-3----3-3-2-2--x--x-----x--x-x-x-x-x----|
 ----x-x-x-x-5-5----5-5-0-0-1-1----1-1-0-0--7--7-----7--7-5-5-3-3----|
 ----1-1-0-0-5-5----5-5-0-0-1-1----1-1-0-0---------------------------|
 ------------5-5----5-5-0-0-1-1----1-1-0-0---------------------------|

 ------------------------------------------------------|
 -6-6-5-5--------8-8-6-6-------------------------------|
 -x-x-x-x-5-5----x-x-x-x-7-7----7-7-2-2-3-3--3"---5"---|
 -3-3-2-2-x-x----5-5-3-3-x-x----x-x-0-0-1-1--1"---3"---|
 ---------3-3------------5-5----5-5-0-0-1-1--1"---3"---|
 -----------------------------------0-0-1-1--1"---3"---|

ĂŽnscrie-te la newsletter


Join the ranks ! LIKE us on Facebook