House Of Straw Tab - Bury Your Dead




-------------------------------------------------------------------------------
     HOUSE OF STRAW - BURY YOUR DEAD
-------------------------------------------------------------------------------
Tabbed by:jack
Email:???

Tuning: Drop A (A-E-A-D-F#-B)
INTRO/OUTRO
ALL PALM MUTED
|-------------------------------------------------------|
|-------------------------------------------------------|
|-------------------------------------------------------|
|---------------------------------------------------1b--|   X2
|-0--0-0--0-0--0-0-0----0000-0--0-0--0-0--0-0-0-0-0-1b--|
|-0--0-0--0-0--0-0-0----0000-0--0-0--0-0--0-0-0-0-0-1b--|
CHORUS
|--------------------------------------|
|--------------------------------------|
|--------------------------------------|
|--------------------------------------|
|--------------------------------------|
|-15p0-15p0-16p0-0h15p0-15p0-15p0-19p0-|
VERSE
|--------------------------------|
|--------------------------------|
|--------------------------------|
|-3-------5/3---7---5------------|
|-1-------3/1---5---3---0-0-0-0--|
|---0-0-0-----0---0---0-0-0-0-0--|
    PM---     -   -   - - - - -

there are a few other riffs on the side, but those are very quiet, and for the chorus 
chorus), its just open, but you can figure out rythm on your own.
| /  slide up
|   slide down
| h  hammer-on
| p  pull-off
| ~  vibrato
| +  harmonic
| x  Mute note
===============================================================================

ĂŽnscrie-te la newsletter


Join the ranks ! LIKE us on Facebook