Losin It Bass Tab - Bury Your Dead




 (Bassline)







Gtr I (Bb F Bb Eb) - 'w/pick'

          Intro
  Moderate Hardcore E=146
 3/8      4/4
  Gtr I
  Q  E     W          +W           +W           +H     +E  E  Q  a   3x
|------||-----------|------------|------------|----------------------||
|------||o----------|------------|------------|---------------------o||
|------||o----------|------------|------------|---------------------o||
|------||--0--------|-(0)--------|-(0)--------|-(0)----(0)-0-12s=0---||


  W          +W           +W           H    H
|----------|------------|------------|-----------|
|----------|------------|------------|-----------|
|----------|------------|------------|-----------|
|-0--------|-(0)--------|-(0)--------|-5----3----|


  q  Q  H      W
|------------|------||
|------------|------||
|------------|------||
|-0----------|------||


 Breakdown
  E +S  S +E  E E +S  S +E  E   +W
|-----------------------------|------------|
|-----------------------------|------------|
|-----------------------------|------------|
|-0-(0)-0-(0)-0-0-(0)-0-(0)-0-|-(0)--------|


  E +S  S +E  E E +S  S +E  E   +W
|-----------------------------|--------|
|-----------------------------|--------|
|-----------------------------|--------|
|-0-(0)-0-(0)-0-0-(0)-0-(0)-0-|-(0)----|


  E +S  S +E  E E +S  S +E  E   +W
|-----------------------------|------------|
|-----------------------------|------------|
|-----------------------------|------------|
|-0-(0)-0-(0)-0-0-(0)-0-(0)-0-|-(0)--------|


    E +S  S +E  E E +S  S +E  E   E E Q  E E Q
||------------------------------|---------------|
||o-----------------------------|---------------|
||o-----------------------------|---------------|
||--0-(0)-0-(0)-0-0-(0)-0-(0)-0-|-5-4-5--5-4-5--|


  E +S  S +E  E E +S  S +E  E   +E  S S Q  +E  S S S S S S
|-----------------------------|-----------------------------||
|-----------------------------|----------------------------o||
|-----------------------------|----------------------------o||
|-0-(0)-0-(0)-0-0-(0)-0-(0)-0-|-(0)-0-0-0--(0)-0-0-0-0-0-0--||


  E +S  S +E  E E +S  S +E  E   E E Q  E E Q
|-----------------------------|----------------|
|-----------------------------|----------------|
|-----------------------------|----------------|
|-0-(0)-0-(0)-0-0-(0)-0-(0)-0-|-5-4-5--5-4-5---|


  E S E S E E S E S E   W
|---------------------|------*|
|---------------------|------*|
|---------------------|------*|
|-0---0---0-0---0---0-|------*|



Duration Legend
---------------
W - whole; H - half; Q - quarter; E - 8th; S - 16th; T - 32nd; X - 64th; a - acciaccatura
+ - note tied to previous; . - note dotted; .. - note double dotted
Uncapitalized letters represent notes that are staccato (1/2 duration)
Irregular groupings are notated above the duration line
Duration letters will always appear directly above the note/fret number it represents the
duration for.  Duration letters with no fret number below them represent rests.  Multi-
bar rests are notated in the form Wxn, where n is the number of bars to rest for.  Low
melody durations appear below the staff

Tablature Legend
----------------
 h   - hammer-on
 p   - pull-off
 b   - bend
 pb  - pre-bend
 r   - bend release (if no number after the r, then release immediately)
 /  - slide into or out of (from/to "nowhere")
 s   - legato slide
 S   - shift slide
 - natural harmonic
[n]  - artificial harmonic
n(n) - tapped harmonic
 ~   - vibrato
 tr  - trill
 T   - tap
 TP  - trem. picking
 PM  - palm muting
n/  - tremolo bar dip; n = amount to dip
 n  - tremolo bar down
 n/  - tremolo bar up
/n  - tremolo bar inverted dip
 =   - hold bend; also acts as connecting device for hammers/pulls
  - volume swell (louder/softer)
 x   - on rhythm slash represents muted slash
 o   - on rhythm slash represents single note slash

Misc Legend
-----------
 |  - bar
||  - double bar
||o - repeat start
o|| - repeat end
*|  - double bar (ending)
 :  - bar (freetime)
 $  - Segno
 &  - Coda

ĂŽnscrie-te la newsletter


Join the ranks ! LIKE us on Facebook