Sundays Best Tab - Bury Your Dead




Band:  Bury Your Dead
Album: You Had Me At Hello
Song:  Sundays Best

Copyright (c)  Eulogy Recordings 2005
Version 1.0 - june 06

Transcribed By: Justin Roche
Email:          9dshelby@adelphia.net


.  - palm mute           /  - slide up to
  - slide down to       ~  - vibrato
h  - hammer on           b  - Bend
p  - pull off            Suffixes for bend
t  - tap                 f  - full bend    h - half bend
ph - pinched harmonic    q  - quarter bend t - tap bend
*  - see comment         ^  - Hold bend    r release bend
x  - Stuccatto           ~  - vibrato bend
,  - slight palm mute    () - ghost note, sustained note
"  - tremolo note         - Trill

Tuning: dropped c

intro           first riff
|-------------|-----------------------------------------------------|
|-------------|-----------------------------------------------------|
|-------------|---------------------------pm------------------------|
|-------------|-----------------...........................---------|
|-0-x*--0-x*|-5-7-8-0-4-5-7-0-00-000-0-00-0000000-000-000---------|
|-0-x---0-x-|-5-7-8-0-4-5-7-0-00-000-0-00-0000000-000-000---------|
*pic slide

second riff
|-------------------------------------------------------------------|
|-------------------------------------------------------------------|
|-------------------------------------------------------------------|
|--7-777777-5-555555-5-555555---------------------------------------|
|--5-555555-6-666666-3-333333-1-0-1-3-4-3-1-0-----------------------|
|-----------------------------1-0-1-3-4-3-1-0-----------------------|


|-------------------------------------------------------------------|
|-------------------------------------------------------------------|
|----------5--------------------------------------------------------|
|----------3--------------------------------------------------------|
|--0---1-------1-0-1-3-4-3-1-0--------------------------------------|
|--0---1-------1-0-1-3-4-3-1-0--------------------------------------|


bridge riff
|---------------------------------------------11--------------------|
|-------------pm---------------------------15----15-----------------|
|-------------------------------------------------------------------|
|-..........---....................---..----------------------------|
|-00000-0000-1-0-1-4-3-1-00000-0000-1-00----------------------------|
|-00000-0000-1-0-1-4-3-1-00000-0000-1-00----------------------------|









END


ĂŽnscrie-te la newsletter


Join the ranks ! LIKE us on Facebook