Top Gun Bass Tab - Bury Your Dead




-------------------------------------------------------------------------------
     TOP GUN - BURY YOUR DEAD
-------------------------------------------------------------------------------

Tabbed By : Murphy (".)
e-mail: murphy14@fastmail.co.uk

Tuning: Drop A# (A#-F-A#-D#)

||------------------------------------------------------------||  
||------------------------------------------------------------|| 
||-------------------PAUSE------------------------------------|| 
||-0-0-0--0-0-0--0------------5-4-3-0--5-4-3------------------||

||------------------------------------------------------------||  
||------------------------------------------------------------|| 
||------------------------------------------------------------|| 
||-0--0--0-0--1--1--1-1--4--4--4-4--4--4--4-4-5-4-3-----------||

||------------------------------------------------------------||  
||------------------------------------------------------------|| 
||------------------------------------------------------------|| 
||-0--0--0-0--1--1--1-1--1/3--0-0-0-0--0-0-0-0-5-4-3----------||

||------------------------------------------------------------||  
||------------------------------------------------------------|| 
||------------------------------------------------------------|| 
||-0--0--0-0--1--1--1-1--4--4--4-4--4--4--4-4-5-4-3-----------||

||------------------------------------------------------------||  
||------------------------------------------------------------|| 
||------------------------------------------------------------|| 
||-0--0--0-0--1--1--1-1--1/3--0-0-0-0--0-0-0-0-5-4-3--0-------||

||------------------------------------------------------------||  
||------------------------------------------------------------|| 
||------------------------------------------------------------|| 
||-PAUSE---2-3-4--0-------------------------------------------||

||------------------------------------------------------------||  
||------------------------------------------------------------|| 
||------------------------------------------------------------|| 
||-0-0-0-0--0-0-0-0--5-4-3-0----------------------------------||

||------------------------------------------------------------||  
||------------------------------------------------------------|| 
||------------------------------------------------------------|| 
||-PAUSE---2-3-4--0-------------------------------------------||

||------------------------------------------------------------||  
||------------------------------------------------------------|| 
||------------------------------------------------------------|| 
||-0-0-0-0--0-0-0-0--5-4-3------------------------------------||

||------------------------------------------------------------||  
||------------------------------------------------------------|| 
||------------------------------------------------------------|| 
||-/5----3----------------------------------------------------||

||---------------------------------------------||    ||-------||  
||---------------------------------------------||    ||-------||  
||---------------------------------------------|| x8 ||-------||  
||-0-0--0-0-0-0-0--0-0--0-0-------------------||    ||-5-4-3-||


||------------------------------------------------------------|| -|
||------------------------------------------------------------||  |
||------------------------------------------------------------||  |
||-0--0--0-0--1--1--1-1--4--4--4-4--4--4--4-4-5-4-3-----------||  |
                                                                  |--x2
||------------------------------------------------------------||  |
||------------------------------------------------------------||  |
||------------------------------------------------------------||  |
||-0--0--0-0--1--1--1-1--1/3--0-0-0-0--0-0-0-0-5-4-3----------|| -|

||------------------------------------------------------------||  
||------------------------------------------------------------|| 
||------------------PAUSE-------------------PAUSE-------------|| 
||-0-0-0--0-0-0--0---------0-0-0--0-0-0--0--------------------||

||------------------------------------------------------------|| -| 
||------------------------------------------------------------||  |
||-------------------------------------------PAUSE------------||  |
||-0-0-0--0-0-0--0--0-0-0---0-0-0--0--0--0--------------------||  |
                                                                  |--x2
||------------------------------------------------------------||  |
||------------------------------------------------------------||  |
||------------------------------------------------------------||  |
||-0-0-0--0-0-0--0--0-0-0---0-0-0--0--0--0--0--4-3-2----------|| -|

||---------------------------------------------||    ||-------||  
||---------------------------------------------||    ||-------||  
||---------------------------------------------|| x8 ||-------||  
||-0-0--0-0-0-0-0--0-0--0-0-------------------||    ||-5-4-3-||

||------------------------------------------------------------||     
||------------------------------------------------------------||     
||------------------------------------------------------------|| x4   
||-0-0--0-0-0-0-0--0-0--0-0----------------------------------||    

||------------------------------------------------------------||  
||------------------------------------------------------------|| 
||------------------------------------------------------------|| 
||-0-0-0--0-0-0--0--------------------------------------------||


| /  slide up
|   slide down
| h  hammer-on
| p  pull-off
| ~  vibrato
| +  harmonic
| x  Mute note
===============================================================================

ĂŽnscrie-te la newsletter


Join the ranks ! LIKE us on Facebook