Comedown Tab - Bush






Intro:

48"

|-----------------|
|-----------------|
|-----------------|
|-9--7--4--5------|
|-9--7--4--5------|
|-7--5--2--3------|

55"

|-----------------|
|-----------------|
|-----------------|
|-9--7--4--5/9----|
|-9--7--4--5/9----|
|-7--5--2--3/7----|

The song rocks but I only know the intro and lyrics. If you have any questions about
this tablature or anything else please email me at demondamon111@hotmail.com! Thank
you! Happy New Year 2005! Hope you all had a merry Christmas! Peace out!

ĂŽnscrie-te la newsletter


Like us on Facebook