Land Of The Living Tab - Bush






Artist:BUSH
Tabbed by:Mobeen-ur-Rehman
CD:Golden State


Intro:
e|------------------------------------
B|------------------------------------
G|--------17-17-17--------17-17-17----
D|--4-4--------------4-4--------------7*
A|--4-4--------------4-4--------------7*(sort of palm muted)
E|--2-2--------------2-2--------------5*

*:Stroke rapidly
e|------------------------------------
B|------------------------------------
G|------------------------------------
D|--3-3-4-6---3-3-4-6-----------------
A|--3-3-4-6---3-3-4-6-----------------
E|--1-1-2-4---1-1-2-4-----------------

Verse:
e|------------------------------------
B|------------------------------------
G|------------------------------------
D|------------------------------------
A|--3-3-8-6----3-3-8-6----------------
E|--1-1-6-4----1-1-6-4----------------
"I lost myself.."
e|------------------------------------------------------
B|------------------------------------------------------
G|------------------------------------------------------
D|--10-11--13---10-11--13--10--11--13--14--15--17--19---
A|-8--9--11----8--9--11----8--9--11----12--13--15--17---
E|------------------------------------------------------
"I am the vapour..."

Chorus:
e|------------------------------------
B|------------------------------------
G|-----3*-----------------------------
D|--4*-3*-----------------------------
A|--4*-1*-----------------------------
E|--2*--------------------------------

e|------------------------------------
B|------------------------------------
G|------------------------------------
D|--3-3-4-6---3-3-4-6-----------------
A|--3-3-4-6---3-3-4-6-----------------
E|--1-1-2-4---1-1-2-4-----------------

Weird part:
e|------------------------------------
B|------------------------------------
G|--------7---------------------------
D|--4--6--7---------------------------
A|--3--3--4---------------------------
E|------------------------------------

Thats about it. This is my 1st tab and im pretty sure its quite accurate.
any comments or corrections mail to deadpool_sharkx@hotmail.com

ĂŽnscrie-te la newsletter


Like us on Facebook