Mouth Tab - Bush






Bush, Mouth.
Tabbed by John, john_spartans.
  
hey....
well this is just the beginning and parts of the rest 
of the song.
e-----------------------------------------------------
B-----------------------------------------------------
G-----------------------------------------------------
D-5--5--5--5--5--5-----9--9--9-----9--9--9------------
A-5--5--5--5--5--5-----9--9--9-----9--9--9------------
E-3--3--3--3--3--3-----7--7--7-----7--7--7------------

e-----------------------------
B----------------------------6-----6-----6-----6--7---
G------4-----7--4---------------7-----7-----7---------
D---5-----5--------5--4-------------------------------A-----------------------------------------------------
E-----------------------------------------------------

that's all that I'm gonna put in right now.  more later 

:: Ultimate Guitar Archive :: 
http://www.ultimate-guitar.com 


ĂŽnscrie-te la newsletter


Like us on Facebook