People That We Love (ver2) Bass Tab - Bush






Intro/chorus:

Wait one verse of the guitare, and then:

G|-----------------------------------|
D|-----------------------------------| Wat again one more time and the play it 18 times,
A|-----------------3-3-3-3-----------| it boring yes:P
E|-5-5-5-0-0-0-0-----------5-3-55----|

Verse:
G|-------------------------------------------------------------------------|
D|-------------------------------------------------------------------------|
A|-8-8-8-8-8-8-8-8-8-8-8-8-12-12-12-12-12-12-12-12-12-12-12-12-8-8-8-8-8-8-|
E|-------------------------------------------------------------------------|

G|-------------------------------|
D|-------------------------------| 2x
A|-------------------------------|
E|-8-8-8-8-8-8-8-7-7-7-7-7-7-7-7-|

Wait one chorus of the guitare.

Then Play the Chorus: 

G|-----------------------------------|
D|-----------------------------------| 10x
A|-----------------3-3-3-3-----------| 
E|-5-5-5-0-0-0-0-----------5-3-55----|

Verse:
G|-------------------------------------------------------------------------|
D|-------------------------------------------------------------------------|
A|-8-8-8-8-8-8-8-8-8-8-8-8-12-12-12-12-12-12-12-12-12-12-12-12-8-8-8-8-8-8-|
E| ------------------------------------------------------------------------|

G|-------------------------------|
D|-------------------------------| 2x
A|-------------------------------|
E|-8-8-8-8-8-8-8-7-7-7-7-7-7-7-7-|


Then

G|------------|
D|------------| 1x
A|-----3------| 
E|-5-0---5----|

G|---------------|
D|---------------| 4 x
A|-----3---------| 
E|-5-0---5-3h5---|

G|-----------|
D|-----------| 1x
A|-----3-----| 
E|-5-0-------|

Break

Then course ( outro ) : 

G|-----------------------------------|
D|-----------------------------------| 8x
A|-----------------3-3-3-3-----------| 
E|-5-5-5-0-0-0-0-----------5-3-55----|

G|-----------|
D|-----------| 1x
A|-----3-----| 
E|-5-0-------|

This was it, hoped you like it cause it's 100% correct.

ĂŽnscrie-te la newsletter


Like us on Facebook