People That We Love (ver2) Tab - Bush






-------------------------------------------------------------------------------
Bush  The Golden State  People That We Love (Speed Kills)
Tab by: Michael I.
Questions and comments send to HOCMAN44@aol.com
-------------------------------------------------------------------------------


INTRO (Main Riff)
e|---------------------------------------------------------------------------|
B|---------------------------------------------------------------------------|
G|-------------------5-5-5-5-------------------------------------------------|
D|-7-7-7-7--2-2-2-2--5-5-5-5--7-5-7-7----------------------------------------|
A|-7-7-7-7--2-2-2-2--3-3-3-3--7-5-7-7----------------------------------------|
E|-5-5-5-5--0-0-0-0-----------5-3-5-5----------------------------------------|

VERSE (PM)
e|---------------------------------------------------------------------------|
B|---------------------------------------------------------------------------|
G|---------------------------------------------------------------------------|
D|--------------------5-5-5-5------------------------------------------------|
A|--7-7-7-7-2-2-2-2--3-3-3-3--7-5-7-7---------------------------------------|
E|--5-5-5-5--0-0-0-0-----------5-3-5-5---------------------------------------|

BRIDGE (2x) (We expect her gone for some time) 16x Each Chord
e|---------------------------------------------------------------------------|
B|---------------------------------------------------------------------------|
G|---------------------------------------------------------------------------|
D|--10-12--10--10-----------------------------------------------------------|
A|--8---10--10--10-----------------------------------------------------------|
E|----------8---7------------------------------------------------------------|

SECOND RIFF
e|---------------------------------------------------------------------------|
B|---------------------------------------------------------------------------|
G|--------5------------------------------------------------------------------|
D|--7--2-----7---------------------------------------------------------------|
A|--------3------------------------------------------------------------------|
E|--5--0-----5---------------------------------------------------------------|

During the solo play the Main Riff.

END
e|-----------
B|-----------
G|--------5--
D|--7--2-----
A|--------3--
E|--5--0-----

ĂŽnscrie-te la newsletter


Like us on Facebook