The Chemicals Between Us (ver2) Bass Tab - Bush






-------------------------------------------------------------------------------
   The chemicals between us - BUSH
-------------------------------------------------------------------------------

Tabbed By : James Ryan
e-mail: james_ryan@atlanticbb.net

Tuning: Standard
INTRO
G|-------------------------------------|
D|-------------------------------------|
A|---5---2--2--------------5---2--2----|
E|-------------------------------------|


VERSE
G|------------------------------------------------------|
D|-------------------1-1--0--0-0--0-0--0-0--1-1-1-------|
A|-2--2-2--2-2--2-2-------------------------------------|
E|------------------------------------------------------|

CHORUS/OUTRO
G|-------------------------------------------------------------------|
D|-------------------------------------------------------------------|
A|-------------------------3-3--3-3-3--------------------------------|
E|--5---5-5--3-5--5-5-5-----------------3-3--3-3-3-------------------|

THAT'S ALL 

ĂŽnscrie-te la newsletter


Like us on Facebook