Warm Machine (ver4) Tab - Bush






bush, warm machine.
Tabbed by tony, stellartone@aol.com.
  
Person: Kristopher
Song: Warm Machine
Artist: Bush

tab: 
Intro/verse (Rhy.1)0:00
Nigel's part
e---0-------0-0------0----0--0--0----0--0-               
B-----------------------------------------
G--10------109------9----9--9/14---1412-
D-----------------------------------------                
A---8-------87------7----7--7/12---1210-               
E-----------------------------------------                             
                                              
    *(the zeros on the e string make the slight dissonant
        sound on the first chord. let it ring.)
Gavin's part
    F        E                  A     G
e-----------------------------------------------------
B-----------------------------------------------------
G--2-------21-------1-----1--1/6---64---------------
D--3-------32-------2-----2--2/7---75---------------
A--3-------32-------2-----2--2/7---75---------------
E--1-------1

ĂŽnscrie-te la newsletter


Like us on Facebook