Warm Machine (ver5) Tab - Bush






Warm Machine 
   Bush, The Science of things 
   andromediae@hotmail.com 

   This is "Warm Machine" played by Bush at Woodstock 99. This is one 
   of my first tab so there might be mistakes. The solo part and the 
   outro are not tabbed. Its not easy to tab a song, even more a solo 
   like that, when you don't have the cd and when the band have played 
   it one time. 


   intro/verse (gavin) *vibrato* 
   |------0---0-----0---0------0------0-----0---0----0-- 
   |--6--6-6--6-5--5-5-5-5--/-10--10-10--10-8--8-8-8-8-- 
   |---------------------------------------------------- 
   |---------------------------------------------------- 
   |---------------------------------------------------- 
   |---------------------------------------------------- 

   (nigel) 
   |---------------------------------------------------- 
   |---------------------------------------------------- 
   |---------------------------------------------------- 
   |--3----2-----7---5---------------------------------- 
   |--3----2-----7---5---------------------------------- 
   |--1----0-----5---3---------------------------------- 

   chorus 
   |---------------------------------------------------- 
   |---------------------------------------------------- 
   |---------------------------------------------------- 
   |--7-7-7-7-7-x-x-3-3-3-3-3-x-x-0-(---5)---3-3-3-3-3-- 
   |--7-7-7-7-7-x-x-3-3-3-3-3-x-x-2-(or-5)---3-3-3-3-3-- 
   |--5-5-5-5-5-x-x-1-1-1-0-1-x-x-3-(---3)---1-1-1-0-1-- 
   ...life 
   this is the sound 
   here comes the warm 
   machine 
   such a warm..... 
   machine 


   Bridge (before gavin's solo) 

   i haven't figure out the rythm, you can do it by yourself 
   by listening to the song 

   |---------------------------------------------------- 
   |---------------------------------------------------- 
   |---------------------------------------------------- 
   |-5---7---10----------------------------------------- 
   |-5---7---10----------------------------------------- 
   |-3---5----8----------------------------------------- 

   there are the main part of the song, although i haven't tab the solo 
   part and the outro. 
   But the outro is a progression of 2 chords (G5 and A5) played 2 or 4 
   times 


   If you find mistakes, please let me know at 
   andromediae@hotmail.com 

ĂŽnscrie-te la newsletter


Like us on Facebook