Absolute Vacuum Tab - Cadaveria






(intro solo)

|---------------9-10-9h10p9-----------------------------|
|-10~-----10-11-------------11-10-8------10-8-----------|
|-----------------------------------10-9------10-9-8-7~-|
|-------------------------------------------------------|
|-------------------------------------------------------|
|-------------------------------------------------------|

|-------------------------8-10-9-10---------------------|
|----------------8---10-----10-9-10-10~-----------------|
|---7---9---10---.----.-------------10~-----------------|
|-7-.-7-.-7--.-7---7----7-------------------------------|
|-.---.---.----.---.----.-------------------------------|
|-------------------------------------------------------|

|----10----12----13----15-13-12-10-13-12-10-9-10~~~-----|
|-10----10----10----10----------------------------------|
|-------------------------------------------------------|
|-------------------------------------------------------|
|-------------------------------------------------------|
|-------------------------------------------------------|

|-------------------------|
|-------------------------|
|-------------------------|
|-7/875/753/532/32-|
|-------------------------|
|-------------------------|

(riff 1)
|--------------------------------------------|
|--------------------------------------------|
|--------------------------------------------|
|-107-7-7-7-5---9-7----107-7-7-7-5---------|gtr 1&2
|--85-5-5-5-3p0-7-5-----85-5-5-5-3p0-2-3-2-|
|--------------------------------------0-1-0-|

(riff 2a)
|--------------------------------------------------|
|--------------------------------------------------|
|--------------------------------------------------|
|--------------------------------------------------|gtr 1&2
|-555555554h55555555458888555555554h55555555875555-|
|--------------------------------------------------|

(riff 3)
|-------------------------------------------|
|-------------------------------------------|
|-------------------------------------------|
|-777776667777777766677777777666777-8-7-8-7-|gtr 1
|-555554445555555544455555555444555-6-5-6-5-|
|-------------------------------------------|
|
|-------------------------------------------|
|-------------------------------------------|
|-------------------------------------------|
|-7-7-7------7-7-7------7-7-7-------8-7-8-7-|gtr 2
|-5-5-5------5-5-5------5-5-5-------6-5-6-5-|
|-------------------------------------------|

(riff 2b)
|----------------------------------------------|
|----------------------------------------------|
|----------------------------------------------|
|----------------------------------------------|gtr 1&2
|-555555554p55555555458888555555554p5555555587-|
|----------------------------------------------|

(riff 4)
|----------------------------------------------------------------|
|----------------------------------------------------------------|
|---------------a.h.-----------------a.h.-----------------a.h.---|
|-------------10----12-------------10----12-------------10----12-|gtr 1&2
|-8-10-8-7-----8----10-8-10-8-7-----8----10-8-10-8-7-----8----10-|
|-6--8-6-5-55----55----6--8-6-5-55----55----6--8-6-5-55----55----|
           ..    ..             ..    ..             ..    ..

|-----------------------------|
|-----------------------------|
|---------------a.h.----------|
|-------------10----12--------|gtr 1&2
|-8-10-8-7-----8----10-8-10-8-|
|-6--8-6-5-55----55----6--8-6-|
           ..    ..

(riff 5)
|-------------------------------------------|
|-------------5-5-5-------------------------|
|-7-7-7-------6-6-6---7-7-7-------10-10-9-9-|
|-7-7-7-8-8-8-7-7-7---7-7-7-8-8-8-10-10-9-9-|gtr 1&2
|-5-5-5-8-8-8-7-7-7---5-5-5-8-8-8--8--8-7-7-|
|-------6-6-6-5-5-5---------6-6-6-----------|

|---------------------------------------|
|-------------5-5-5---------------------|
|-7-7-7-------6-6-6---7-7-7-------10-10-|
|-7-7-7-8-8-8-7-7-7---7-7-7-8-8-8-10-10-|gtr 1&2
|-5-5-5-8-8-8-7-7-7---5-5-5-8-8-8--8--8-|
|-------6-6-6-5-5-5---------6-6-6-------|

(riff 6)             (riff 7)
|--------------|  |--------------------------------|
|--------------|  |--------------------------------|
|--------------|  |--------------------------------|
|--------------|  |-----333333--333333--333333-----|gtr 1&2
|-7--6----7-10-|  |-5555------55------55------3333-|
|-5--4----5--8-|  |--------------------------------|

(riff 8)                       (riff 9)
|------------------------|  |-------------------|
|------------------------|  |-------------------|
|----3-----3-----3-------|  |-------------------|
|-5----5-4---4-3---3-2---|  |-------------------|gtr 1&2
|----------------------3-|  |-/3-3-3-0-/6-6-6-0-|
|------------------------|  |--.-.-.-.--.-.-.-.-|

(riff 10)               (riff 11)
|-----------------|  |--------------------------------|
|-----------------|  |--------------------------------|
|-----------------|  |--------------------------------|
|-5-5-5-5-----3-4-|  |--------------------------------|gtr 1&2
|-3-3-3-3-6-6-1-2-|  |-6-8-9---8---8--6-8-9---9-8-6-8-|
|---------4-4-----|  |-4-6-7-0-6-0-6--4-6-7-0-7-6-4-6-|

" - tremolo
 / - slide down
  - slide up
 . - palm mute
 ~ - long sound
 x - rest
 p - pull off
 h - hammer on
 tr - trill
 () - ghost note, sustained note







Like us on Facebook