Black Glory Tab - Cadaveria






(riff 1)
|---------------------------------------|
|---------------------------------------|
|---------------------------------------|
|-10-9-7-77-10-9-7-77-10-9-7-77-2-3-5-6-|
|-10-9-7-77-10-9-7-77-10-9-7-77-2-3-5-6-|
|--8-7-5-55--8-7-5-55--8-7-5-55-0-1-3-4-|

(riff 2)
|---------------------------------------|
|---------------------------------------|
|---------------------------------------|
|-10-9-7-77-10-9-7-77-10-9-7-77-2-3-5-6-|
|-10-9-7-77-10-9-7-77-10-9-7-77-2-3-5-6-|
|--8-7-5-55--8-7-5-55--8-7-5-55-0-1-3-4-|
   . . . ..  . . . ..  . . . ..

(riff 3)
|------------------------------------------|
|------------------------------------------|
|------------------------------------------|
|-10-9-7-7-7-10-9-7-7-7-10-9-7-7-7-2-3-5-6-|
|-10-9-7-7-7-10-9-7-7-7-10-9-7-7-7-2-3-5-6-|
|--8-7-5-5-5--8-7-5-5-5--8-7-5-5-5-0-1-3-4-|
   . . . . .  . . . . .  . . . . .

(riff 4)
|--------------------------------------|
|-------10-----------------10----------|
|-9-9-9--9-9-7-9-10--9-9-9--9-9-7-9-10-|
|-9-9-9--7-9-7-9-10--9-9-9--7-9-7-9-10-|
|-7-7-7----7-5-7--8--7-7-7----7-5-7--8-|
|--------------------------------------|

|-------------------------------|--------|
|-------10----------------------|--------| on last time
|-9-9-9--9-9-7-9-10--9-9--------|--------| don't play
|-9-9-9--7-9-7-9-10--9-9-10-9-9-|-10-9-7-| this part
|-7-7-7----7-5-7--8--7-7-10-9-9-|-10-9-7-|
|-------------------------8-7-7-|--8-7-5-|

(riff 5)               (riff 6)
|----------------|  |----------------|
|----------------|  |----------------|
|----------------|  |----------------|
|-4-4-4-2------4-|  |-4-4-4-7------4-|
|-4-4-4-2------4-|  |-4-4-4-7------4-|
|-2-2-2-0-0000-2-|  |-2-2-2-5-0000-2-|

(riff 7)
|----------------------------------|
|----------------------------------|
|----------------------------------|
|-----777788887777-----------------|
|-5555----------------8888----7777-|
|-----------------6666----5555-----|

(riff 8)
|-------------------------------------------------|
|-------------------------------------------------|
|-------------------------------------------------|
|-------------------------------------------------|
|-------------------------------------------------|
|-0h2-2-2-2-2-0h2-2-2-2-2-2h5-5-5-5-5-5p2-2-2-2-2-|

(riff 9)
|-------------------------------------------------|
|-------------------------------------------------|
|-------------------------------------------------|
|-------------------------------------------------|
|-2h4-4-4-4-4-2h4-4-4-4-4-4/7-7-7-7-7-74-4-4-4-4-|
|-0h2-2-2-2-2-0h2-2-2-2-2-2/5-5-5-5-5-52-2-2-2-2-|

(end with this)
|-----|
|-----|
|-----|
|-----|
|-7-4-|
|-5-2-|







Like us on Facebook