The Magic Rebirth Tab - Cadaveria






(riff 1)                            (riff 2)
|-----------------------------|  |-----------------------------|
|-----------------------------|  |-----------------------------|
|-77-xxxx-77-xxxx-88-xxxx-8-8-|  |-----------------------------|
|-77-xxxx-77-xxxx-88-xxxx-8-8-|  |-55-xxxx-55-xxxx-66-xxxx-6-6-|
|-55-xxxx-55-xxxx-66-xxxx-6-6-|  |-55-xxxx-55-xxxx-66-xxxx-6-6-|
|-----------------------------|  |-33-xxxx-33-xxxx-44-xxxx-4-4-|

(riff 3)
|--------------------------------------------------------------|
|--------------------------------------------------------------|
|--------------------------------------------------------------|
|---------33335555------------------------33335555555544444444-|
|-66665555--------11113333--------66665555---------------------|
|-------------------------55553333-----------------------------|

(riff 4 - i think this riff must be played with whammy-bar)
|----------------------------------------------------|
|---------------------------------------777------777-|
|-3---7---5-------3---7---5--------8--7-777-8--7-777-|
|-5-0-8-0-7-0-4-0-5-0-8-0-7-0-4-0--8--7-----8--7-----|
|-------------5---------------5----6--5-----6--5-----|
|----------------------------------------------------|

(riff 5)                (riff 6)
|-----------------|  |-------------------------------|
|-----------------|  |-------------------------------|
|-----------------|  |-------------------------------|
|-----7-----------|  |-------------------------------|
|-5---5-7-8---7-8-|  |-5---3h5h6-5-3-8-----------7-8-|
|-3-----5-6---5-6-|  |-3-------------6-3-5-6-5-3-5-6-|
                .                      . . . . .

(riff 7)                               (riff 8)
|---------------------------------|  |----------|
|---------------------------------|  |----------|
|---------------------------------|  |----------|
|---------------------------------|  |-5----5-5-|
|---------------------------------|  |-5----5-5-|
|-0h3333-0h3333-0h3333-5p3p222222-|  |-3----3-3-|

(riff 9)
|------------------------------------------------------------------------|
|------------------------------------------------------------------------|
|------------------------------------------------------------------------|
|---5------------5------------5------------------------------------------|
|-----6-5-44-------6-5-44-------6-5-44-----------------------------------|
|-3----------5-3----------5-3----------5-0h3h4h6p0h3h4h6p0h3h4h6p0h3h4h6-|

(riff 10)
|----------------------------------|
|----------------------------------|
|----------------------------------|
|----------------------------------|
|----------------------------------|
|-0h3h4h6p0h3h4h6p0h3h4h6p0h3h4h6p-|
  (play this four times)

(riff 11)                       (riff 12)
|-------------------------|  |---------------|
|-------------------------|  |---------------|
|-----------------------6-|  |---------------|
|---6-4-6p4h6---6-4h6p4---|  |-4-2h4p2p1-----|
|-4-----------4-----------|  |-----------2-4-|
|-------------------------|  |---------------|

(riff 13)
|----------------------------|
|----------------------------|
|-----8-----9-----8/98-11-9-|
|-----6-----7-----6/76--9-7-|
|-444---444---444------------|
|----------------------------|

(riff 14)
|-------------------------------------|
|-9---7-9-10-9-7-8-9---12-10-9-7-9-10-|
|-8---6-8--9-8-6-7-8---11--9-8-6-8--9-|
|-6---4-6--7-6-4-5-6----9--7-6-4-6--7-|
|-------------------------------------|
|-------------------------------------|

(ending riff)
|------------------------------|
|------------------------------|
|-----8-----9-----8/98-11-9-8-|
|-----6-----7-----6/76--9-7-6-|
|-444---444---444--------------|
|------------------------------|







Like us on Facebook