Rubber Ball Tab - Cage The Elephant




-----------------------------------------------------------------------------
     RUBBER BALL  Cage the Elephant
-----------------------------------------------------------------------------
Tabbed by: Troy
Email: joeymckarl@gmail.com

Tuning: EADGBe

Key:

| = not a standard bar line; just used to separate music

o  
o = repeat sign (watch for these)
-----------------------------------------------------------------------------

(Intro and Verse 1)

     F            F (add C)    F            F (add C) 
e|-----------------------------------------------------------|
B|------10--10-------10--10-------10--10-------10--10--------|
G|------10--10-------10--10-------10--10-------10--10--------|
D|------10--10-------10--10-------10--10-------10--10--------|
A|---8-------------------------8-----------------------------|
E|----------------8-------------------------8----------------|

     Am7        Am7        Am7        Am7
e|-----------------------------------------------------------|
B|------5--5-------5--5-------5--5-------5--5----------------|
G|------5--5-------5--5-------5--5-------5--5---------------o|
D|------5--5-------5--5-------5--5-------5--5---------------o| x6
A|---7----------7---------------------7----------------------|
E|-------------------------5---------------------------------|

(Chorus 1)

     Bb         Bb        Bb          Bb
e|-----------------------------------------------------------|
B|------6--6-------6--6-------6--6-------6--6----------------|
G|------7--7-------7--7-------7--7-------7--7----------------|
D|------8--8-------8--8-------8--8-------8--8----------------|
A|---8----------8---------------------8----------------------|
E|-------------------------8---------------------------------|

     F            F (add C)    F            F (add C) 
e|-----------------------------------------------------------|
B|------10--10-------10--10-------10--10-------10--10--------|
G|------10--10-------10--10-------10--10-------10--10--------|
D|------10--10-------10--10-------10--10-------10--10--------|
A|---8-------------------------8-----------------------------|
E|----------------8-------------------------8----------------|

     Bb         Bb         Bb         Bb
e|-----------------------------------------------------------|
B|------6--6-------6--6-------6--6-------6--6----------------|
G|------7--7-------7--7-------7--7-------7--7----------------|
D|------8--8-------8--8-------8--8-------8--8----------------|
A|---8----------8---------------------8----------------------|
E|-------------------------8---------------------------------|

     C              C            C             C
e|-----------------------------------------------------------|
B|-------8---8---------8---8---------8---8---------8---8-----|
G|-------9---9---------9---9---------9---9---------9---9-----|
D|-------10--10--------10--10--------10--10--------10--10----|
A|---10------------10--------------------------10------------|
E|-------------------------------10--------------------------|

(Verse 2)

     F            F (add C)      F              F (add C) 
e|-----------------------------------------------------------|
B|------10--10-------10--10-------10--10-------10--10--------|
G|------10--10-------10--10-------10--10-------10--10--------|
D|------10--10-------10--10-------10--10-------10--10--------|
A|---8-------------------------8-----------------------------|
E|----------------8-------------------------8----------------|

     Am7        Am7       Am7         Am7
e|-----------------------------------------------------------|
B|------5--5-------5--5-------5--5-------5--5----------------|
G|------5--5-------5--5-------5--5-------5--5---------------o|
D|------5--5-------5--5-------5--5-------5--5---------------o| x2
A|---7----------7---------------------7----------------------|
E|-------------------------5---------------------------------|

(Chorus 2)

     Bb         Bb         Bb         Bb
e|-----------------------------------------------------------|
B|------6--6-------6--6-------6--6-------6--6----------------|
G|------7--7-------7--7-------7--7-------7--7----------------|
D|------8--8-------8--8-------8--8-------8--8----------------|
A|---8----------8---------------------8----------------------|
E|-------------------------8---------------------------------|

     F            F (add C)      F            F (add C) 
e|-----------------------------------------------------------|
B|------10--10-------10--10-------10--10-------10--10--------|
G|------10--10-------10--10-------10--10-------10--10--------|
D|------10--10-------10--10-------10--10-------10--10--------|
A|---8-------------------------8-----------------------------|
E|----------------8-------------------------8----------------|

     Bb         Bb          Bb        Bb
e|-----------------------------------------------------------|
B|------6--6-------6--6-------6--6-------6--6----------------|
G|------7--7-------7--7-------7--7-------7--7----------------|
D|------8--8-------8--8-------8--8-------8--8----------------|
A|---8----------8---------------------8----------------------|
E|-------------------------8---------------------------------|

      C            C             C             C
e|-----------------------------------------------------------|
B|-------8---8---------8---8---------8---8---------8---8-----|
G|-------9---9---------9---9---------9---9---------9---9-----|
D|-------10--10--------10--10--------10--10--------10--10----|
A|---10------------10--------------------------10------------|
E|-------------------------------10--------------------------|

(Bridge)

     F            F (add C)    F            F (add C) 
e|-----------------------------------------------------------|
B|------10--10-------10--10-------10--10-------10--10--------|
G|------10--10-------10--10-------10--10-------10--10--------|
D|------10--10-------10--10-------10--10-------10--10--------|
A|---8-------------------------8-----------------------------|
E|----------------8-------------------------8----------------|

     Am7        Am7        Am7       Am7
e|-----------------------------------------------------------|
B|------5--5-------5--5-------5--5-------5--5----------------|
G|------5--5-------5--5-------5--5-------5--5---------------o|
D|------5--5-------5--5-------5--5-------5--5---------------o| x4
A|---7----------7---------------------7----------------------|
E|-------------------------5---------------------------------|

(Chorus 3)

     Bb         Bb         Bb        Bb
e|-----------------------------------------------------------|
B|------6--6-------6--6-------6--6-------6--6----------------|
G|------7--7-------7--7-------7--7-------7--7----------------|
D|------8--8-------8--8-------8--8-------8--8----------------|
A|---8----------8---------------------8----------------------|
E|-------------------------8---------------------------------|

     F            F (add C)      F             F (add C) 
e|-----------------------------------------------------------|
B|------10--10-------10--10-------10--10-------10--10--------|
G|------10--10-------10--10-------10--10-------10--10--------|
D|------10--10-------10--10-------10--10-------10--10--------|
A|---8-------------------------8-----------------------------|
E|----------------8-------------------------8----------------|

     Bb         Bb          Bb        Bb
e|-----------------------------------------------------------|
B|------6--6-------6--6-------6--6-------6--6----------------|
G|------7--7-------7--7-------7--7-------7--7----------------|
D|------8--8-------8--8-------8--8-------8--8----------------|
A|---8----------8---------------------8----------------------|
E|-------------------------8---------------------------------|

     C             C              C            C
e|-----------------------------------------------------------|
B|-------8---8---------8---8---------8---8---------8---8-----|
G|-------9---9---------9---9---------9---9---------9---9-----|
D|-------10--10--------10--10--------10--10--------10--10----|
A|---10------------10--------------------------10------------|
E|-------------------------------10--------------------------|

(Outro)

     F            F (add C)    F            F (add C) 
e|-----------------------------------------------------------|
B|------10--10-------10--10-------10--10-------10--10--------|
G|------10--10-------10--10-------10--10-------10--10--------|
D|------10--10-------10--10-------10--10-------10--10--------|
A|---8-------------------------8-----------------------------|
E|----------------8-------------------------8----------------|

     Am7        Am7       Am7        Am7
e|-----------------------------------------------------------|
B|------5--5-------5--5-------5--5-------5--5----------------|
G|------5--5-------5--5-------5--5-------5--5---------------o|
D|------5--5-------5--5-------5--5-------5--5---------------o| Repeat and
A|---7----------7---------------------7----------------------|    Fade
E|-------------------------5---------------------------------|


=============================================================================

ĂŽnscrie-te la newsletter


Join the ranks ! LIKE us on Facebook