100 Grand Canyon Intro Tab - Cancer Bats




I've only got half the tab done, so here it is... my first typed tab...

|---------------------------------------------------|  part A
|---------------------------------------------------|
|---------------------------------------------------|
|---------------------------------------------------|      X3
|----33----2*----0-----------0----------------------|
|-0------0-----0----00000---------------------------|


|--------------------------------------------------|   part AB
|--------------------------------------------------|
|--------------------------------------------------|
|--------------------------------------------------|      X1
|----33----2*----0-------5*--3*--------------------|
|-0------0-----0----0------------------------------|

|---------------------------------------------------|   part C
|---------------------------------------------------|
|---------------------------------------------------|
|---------------------------------------------------|     X4
|---------------------------------------------------|
|-4-4-4-4-4-4-4-4-8-8-8-8-8-8-8-8-------------------|

|---------------------------------------------------|   part D
|---------------------------------------------------|
|---------------------------------------------------|
|---------------------------------------------------|     X4
|---------------------------------8*----------------|
|-4-4-0-4-4--8--4-4-0-4-4---------------------------|

Order: A-A-A-AB-A-A-A-AB-C-D-A-AB-A-A

well thats i i have hope its sumwhat right.

ĂŽnscrie-te la newsletter


Join the ranks ! LIKE us on Facebook