Raised Right Tab - Cancer Bats




-----------------------------------------------------------------------------
                         Raised Right - Cancer Bats
-----------------------------------------------------------------------------
Tabbed by: _KurtCobain_77
Email: inkeepingsecretsofsilentearth@live.com

Tuning: Drop C

Intro
D|------------------|-------------------------------------------------------|
A|------------------|-------------------------------------------------------|
F|------------------|-------------------------------------------------------|
C|------------------|-----------------3h55-3h55-----------------------------|
G|-4h6-4h63-3h5----|-4h6-4h63-3h5---3h55-3h55-----------------------------|
C|---------------5--|---------------5-3h55-3h55-----------------------------|

Chorus
D|---------------------|----------------------------------------------------|
A|---------------------|----------------------------------------------------|
F|---------------------|----------------------------------------------------|
C|-5-3---77-5--8h5-3h5-|-3h55-3h55-----------------------------------------|
G|-5-3---55-3--8h5-3h5-|-3h55-3h55------------------------------------------|
C|-5-3---------8h5-3h5-|-3h55-3h55------------------------------------------|

Bridge
D|--------------------------------------------------------------------------|
A|--------------------------------------------------------------------------|
F|--------------------------------------------------------------------------|
C|-8~7~-8~-8/10--8~7~-8~----------------------------------------------------|
G|-8~7~-8~-8/10--8~7~-8~-0-000-0-000-0-000-0-000----------------------------|
C|-8~7~-8~-8/10--8~7~-8~-0-000-0-000-0-000-0-000----------------------------|

(I'm not so sure about this riff, but this is as close as I've got so far)
D|--------------------------------------------------------------------------|
A|--------------------------------------------------------------------------|
F|--------------------------------------------------------------------------|
C|-510310-510310------------------------------------------------------------|
G|-510310-510310-0-000-000--------------------------------------------------|
C|-510310-510310-0-000-000--------------------------------------------------|

Listen to the song to know when to palm mute.

Rate and Comment Please.

Keep it Brutal.
************************************

| /   slide up
|    slide down
| h   hammer-on
| p   pull-off
| ~   held note
| +   harmonic
| x   Mute note
| b   Bend
| pb  Pre-bend
| br  Bend release
| pbr Pre-bend release
| brb Bend release bend

************************************

ĂŽnscrie-te la newsletter


Join the ranks ! LIKE us on Facebook