Bells Of Acheron Bass Tab - Candlemass






------------------------------------------------------------
     Bells of Acheron - Candlemass
-------------------------------------------------------------------------------
Tabbed by:ariel chapa
Email:x-x_xsoad_x-x@hotmail.com

Tuning:standard


Riff A

G|----------------------------------------------------------------|
D|----------------------------------------------------------------|
A|------3-2-----------3-2-----------3-2---------------------------|
E|--0----------3-2-0----------3-2-0--------3-2---6----------------|

Riff B

G|-------------------------|
D|-------------------------|
A|-------------------------|
E|--5-3-5--3-5-3-5--3-5-6--|

Riff c

G|---------------------------------------------------------------|
D|---------------------------------------------------------------|
A|-------------------------------------2------3------2------3----|
E|-2-2-2-2--3-3-3-3--2-2-2-2--3-3-3-3----------------------------|


Main Riff

G|--------------------------------|
D|--------------------------------|
A|--2----3-5--3--2-----2----------|
E|-----------------3-2---3-2------|

Riff D(pre-solo)

G|------------------------------|
D|------------------------------|
A|--222333555333777888777555----|
E|--------------------------00--|
  pm..........................

Riff E(after solo)

G|---------------------------------|
D|---------------------------------|
A|--------3-2-----2-1-----1-0------|
E|--2-3-5-----3-2-----3-2-----3-2--|



ĂŽnscrie-te la newsletter


Like us on Facebook