Black Dwarf Tab - Candlemass






Band:  Candlemass
Album: Candlemass
Song:  Black Dwarf

Copyright (c)  (Nuclear Blast) (2005)
Version 1.0 - (02/07/05)

Transcribed By: Steve
Email:          stephen.elvidge1@ntlworld.com


.  - palm mute           /  - slide up to
  - slide down to       ~  - vibrato
h  - hammer on           b  - Bend
p  - pull off            Suffixes for bend
t  - tap                 f  - full bend    h - half bend
ph - pinched harmonic    q  - quarter bend t - tap bend
*  - see comment         ^  - Hold bend    r release bend
x  - Stuccatto           ~  - vibrato bend
,  - slight palm mute    () - ghost note, sustained note
"  - tremolo note         - Trill

Tunning D G C F A D
 

 Synth fade in

 Main Riff
    [----PM----]
E------------------------|
B------------------------|
G------------------------|
D-2-----------------55---|
A-2-------------3---33-3-|
E-0-0-0-0-0-0-0-1-0----1-|

    [----PM----]
E------------------------|
B------------------------|
G------------------------|
D-2-----------------55---|
A-2-------------3---33-3-|
E-0-0-0-0-0-0-0-1-0----1-|

    [----PM----]
E-------------------------|
B-------------------------|
G-------------------------|
D-2-----------------55----|
A-2-------------3---33-33-|
E-0-0-0-0-0-0-0-1-0----11-|

    [----PM----]
E---------------------------|
B---------------------------|
G---------------------------|
D-2-------------------55----|
A-2-------------33----33-33-|
E-0-0-0-0-0-0-0-11-00----11-|

 Verse

 Rpt Main Riff 8 X

 Chorus
  ~~~~~~~~~~                              ~~~
E---------------------------------------------------|
B---------------------------------------------------|
G----------------------------------------------0----|
D--------------------------------------------0------|
A---------------7----7----72----2--------5---------|
E-2----2----2-4-5----5----5

ĂŽnscrie-te la newsletter


Like us on Facebook