Samarithan (ver2) Tab - Candlemass






-------------------------------------------------------------------------------
     Samarithan - Candlemass
-------------------------------------------------------------------------------
Tabbed by:Ariel Chapa

Alot of people wanted to know what "Samarithan" meant. And actually it is spelled
Samaritan and it means a man who helps those in need.

e|---------------------------------------------------------------|
B|---------------------------------------------------------------|
G|---------------------------------------------------------------|
D|----------------------5---4---2-5-4----------------------------|
A|-------5---7-3-2-----------------------------------------------|
E|---7-----------------------------------------------------------|


e|-----|--------------|
B|-----|--------------|
G|-----|--------------|
D|-----|-5-4-2--------| 4 x
A|-----|-------3--2---|
E|--7*-|--------------|
  *only on first  

Keep on repeating till end....
===============================================================================

ĂŽnscrie-te la newsletter


Like us on Facebook