All The Way Tab - Cartel






Cartel - All The Way

Guitar Tab by Daniel Madsen

--------------------------------------------------

VERSE 1
E-0-0-0000-0-0-0000-0-0-000/0-0-0--0--0-0--|
B-0-0-0000-0-0-0000-0-0-000/0-0-0--0--0-0--|
G-9-9-9999-9-9-9999-9-9-999/7-7-11-11-1111-| X6
D-7-7-7777-7-7-7777-7-7-777/5-5-9--9--9-9--|
A-7-7-7777-7-7-7777-7-7-777/5-5-9--9--9-9--|
D-7-7-7777-7-7-7777-7-7-777/5-5-9--9--9-9--|

--------------------------------------------------

CHORUS
E-00000-00-0-00-00-0000-00-0000000-X|
B-00000-00-3-33-30-0000-00-0000000-X|
G-77777-77-2-22-22-2222-22-4444444-X| X4
D-77777-77-0-00-02-2222-22-2222222-X|
A-55555-55-0-00-00-0000-00-2222222-X|
D-55555-55-0-00-0----------2222222-X|

--------------------------------------------------

REPEAT VERSE X4

--------------------------------------------------

REPEAT CHORUS X4

--------------------------------------------------

BRIDGE
E-0-0-0-0-0-0-0-0-0-0-0-0-0-0-0-0-|
B-0-0-0-0-2-2-2-2-0-0-0-0-0-0-0-0-|
G-4-4-4-4-3-3-3-3-7-7-7-7-7-7-7-7-|
D-2-2-2-2-0-0-0-0-5-5-5-5-5-5-5-5-|
A-2-2-2-2-0-0-0-0-5-5-5-5-5-5-5-5-|
D-2-2-2-2-0-0-0-0-5-5-5-5-5-5-5-5-|

E-0-0-0-0-2-2-2-2-0-0-0-0-0-0-0-0-0-0-0-0-0-|
B-0-0-0-0-2-2-2-2-0-0-0-0-0-0-0-0-0-0-0-0-0-|
G-7-7-7-7-3-3-3-3-7-7-7-7-7-7-7-7-7-7-7-7-7-|
D-5-5-5-5-0-0-0-0-5-5-5-5-5-5-5-5-5-5-5-5-5-|
A-5-5-5-5-0-0-0-0-5-5-5-5-5-5-5-5-5-5-5-5-5-|
D-5-5-5-5-0-0-0-0-5-5-5-5-5-5-5-5-5-5-5-5-5-|

E-------2---0---0-|
B-------3---0---0-|
G---7-----2-------| X4
D---7-0---2---2---|
A-5---0---0---2---|
D-5---0-------2---|

--------------------------------------------------

REPEAT CHORUS X6

--------------------------------------------------

OUTRO

E-0---0-0-|
B-0---2-0-|
G-7---3-2-| X2
D-7---0-2-|
A-5---0-0-|
D-5---0---|

--------------------------------------------------






Like us on Facebook